ISO-10303-21;
HEADER;
/* Generated by software containing ST-Developer
 * from STEP Tools, Inc. (www.steptools.com) 
 */

FILE_DESCRIPTION(
/* description */ ('Alibre Inc.'),
/* implementation_level */ '2;1');

FILE_NAME(
/* name */ 'export-913F1C35-B9F0-440D-9809-B74A4CB35DBE',
/* time_stamp */ '2019-10-05T11:38:43-05:00',
/* author */ (''),
/* organization */ (''),
/* preprocessor_version */ 'ST-DEVELOPER v17',
/* originating_system */ 'Alibre',
/* authorisation */ '');

FILE_SCHEMA (('AUTOMOTIVE_DESIGN'));
ENDSEC;

DATA;
#10=MECHANICAL_DESIGN_GEOMETRIC_PRESENTATION_REPRESENTATION('NAME_0',(),
#32);
#11=COLOUR_RGB('',0.882352941176471,0.882352941176471,0.882352941176471);
#12=FILL_AREA_STYLE_COLOUR('NAME_0',#11);
#13=FILL_AREA_STYLE('NAME_0',(#12));
#14=SURFACE_STYLE_FILL_AREA(#13);
#15=SURFACE_SIDE_STYLE('NAME_0',(#14));
#16=SURFACE_STYLE_USAGE(.POSITIVE.,#15);
#17=PRESENTATION_STYLE_ASSIGNMENT((#16));
#18=PRODUCT_DEFINITION_CONTEXT('part definition',#25,'design');
#19=SHAPE_DEFINITION_REPRESENTATION(#20,#575);
#20=PRODUCT_DEFINITION_SHAPE('PRODUCT_VERSION_ID',
'PRODUCT_VERSION_DESCR',#21);
#21=PRODUCT_DEFINITION('PRODUCT_VERSION_ID','PRODUCT_VERSION_DESCR',#22,
#18);
#22=PRODUCT_DEFINITION_FORMATION_WITH_SPECIFIED_SOURCE(
'PRODUCT_VERSION_ID','PRODUCT_VERSION_DESCR',#27,.MADE.);
#23=PRODUCT_RELATED_PRODUCT_CATEGORY('part','part',(#27));
#24=APPLICATION_PROTOCOL_DEFINITION('Draft International Standard',
'automotive_design',1994,#25);
#25=APPLICATION_CONTEXT('automotive_Design');
#26=PRODUCT_CONTEXT('3D Mechanical Parts',#25,'mechanical');
#27=PRODUCT('','EM-6027UN-38','',(#26));
#28=(
LENGTH_UNIT()
NAMED_UNIT(*)
SI_UNIT(.MILLI.,.METRE.)
);
#29=(
NAMED_UNIT(*)
PLANE_ANGLE_UNIT()
SI_UNIT($,.RADIAN.)
);
#30=(
NAMED_UNIT(*)
SI_UNIT($,.STERADIAN.)
SOLID_ANGLE_UNIT()
);
#31=UNCERTAINTY_MEASURE_WITH_UNIT(LENGTH_MEASURE(1.E-6),#28,
'DISTANCE_ACCURACY_VALUE',
'Maximum model space distance between geometric entities at asserted c
onnectivities');
#32=(
GEOMETRIC_REPRESENTATION_CONTEXT(3)
GLOBAL_UNCERTAINTY_ASSIGNED_CONTEXT((#31))
GLOBAL_UNIT_ASSIGNED_CONTEXT((#30,#29,#28))
REPRESENTATION_CONTEXT('ID1','3D')
);
#33=ORIENTED_CLOSED_SHELL('',*,#573,.F.);
#34=TOROIDAL_SURFACE('',#338,0.25,0.25);
#35=TOROIDAL_SURFACE('',#346,0.25,0.25);
#36=TOROIDAL_SURFACE('',#349,0.25,0.25);
#37=TOROIDAL_SURFACE('',#357,0.25,0.25);
#38=VECTOR('',#393,1.);
#39=VECTOR('',#396,1.);
#40=VECTOR('',#399,1.);
#41=VECTOR('',#402,1.);
#42=VECTOR('',#416,1.);
#43=VECTOR('',#421,1.);
#44=VECTOR('',#437,1.);
#45=VECTOR('',#442,1.);
#46=LINE('',#490,#38);
#47=LINE('',#494,#39);
#48=LINE('',#498,#40);
#49=LINE('',#502,#41);
#50=LINE('',#514,#42);
#51=LINE('',#518,#43);
#52=LINE('',#531,#44);
#53=LINE('',#535,#45);
#54=PLANE('',#327);
#55=PLANE('',#331);
#56=PLANE('',#332);
#57=PLANE('',#348);
#58=PLANE('',#359);
#59=PLANE('',#363);
#60=PLANE('',#369);
#61=PLANE('',#370);
#62=PLANE('',#374);
#63=PLANE('',#375);
#64=VERTEX_POINT('',#476);
#65=VERTEX_POINT('',#478);
#66=VERTEX_POINT('',#482);
#67=VERTEX_POINT('',#484);
#68=VERTEX_POINT('',#488);
#69=VERTEX_POINT('',#489);
#70=VERTEX_POINT('',#491);
#71=VERTEX_POINT('',#493);
#72=VERTEX_POINT('',#496);
#73=VERTEX_POINT('',#497);
#74=VERTEX_POINT('',#499);
#75=VERTEX_POINT('',#501);
#76=VERTEX_POINT('',#504);
#77=VERTEX_POINT('',#507);
#78=VERTEX_POINT('',#509);
#79=VERTEX_POINT('',#513);
#80=VERTEX_POINT('',#517);
#81=VERTEX_POINT('',#524);
#82=VERTEX_POINT('',#526);
#83=VERTEX_POINT('',#530);
#84=VERTEX_POINT('',#534);
#85=VERTEX_POINT('',#541);
#86=VERTEX_POINT('',#543);
#87=VERTEX_POINT('',#547);
#88=VERTEX_POINT('',#550);
#89=VERTEX_POINT('',#552);
#90=VERTEX_POINT('',#557);
#91=VERTEX_POINT('',#559);
#92=CIRCLE('',#325,0.3);
#93=CIRCLE('',#326,0.3);
#94=CIRCLE('',#329,0.3);
#95=CIRCLE('',#330,0.3);
#96=CIRCLE('',#333,0.5);
#97=CIRCLE('',#334,0.5);
#98=CIRCLE('',#335,0.5);
#99=CIRCLE('',#336,0.5);
#100=CIRCLE('',#337,2.5);
#101=CIRCLE('',#339,0.25);
#102=CIRCLE('',#340,0.25);
#103=CIRCLE('',#341,0.25);
#104=CIRCLE('',#343,0.25);
#105=CIRCLE('',#345,0.25);
#106=CIRCLE('',#347,0.25);
#107=CIRCLE('',#350,0.25);
#108=CIRCLE('',#351,0.25);
#109=CIRCLE('',#352,0.25);
#110=CIRCLE('',#354,0.25);
#111=CIRCLE('',#356,0.25);
#112=CIRCLE('',#358,0.25);
#113=CIRCLE('',#361,2.8125);
#114=CIRCLE('',#362,2.8125);
#115=CIRCLE('',#365,2.5);
#116=CIRCLE('',#367,3.);
#117=CIRCLE('',#368,3.);
#118=CIRCLE('',#372,0.0864992762618529);
#119=CIRCLE('',#373,0.0864992762618529);
#120=EDGE_CURVE('',#64,#64,#92,.T.);
#121=EDGE_CURVE('',#65,#65,#93,.T.);
#122=EDGE_CURVE('',#66,#66,#94,.T.);
#123=EDGE_CURVE('',#67,#67,#95,.T.);
#124=EDGE_CURVE('',#68,#69,#96,.F.);
#125=EDGE_CURVE('',#68,#70,#46,.T.);
#126=EDGE_CURVE('',#71,#70,#97,.F.);
#127=EDGE_CURVE('',#71,#69,#47,.T.);
#128=EDGE_CURVE('',#72,#73,#98,.F.);
#129=EDGE_CURVE('',#72,#74,#48,.T.);
#130=EDGE_CURVE('',#75,#74,#99,.F.);
#131=EDGE_CURVE('',#75,#73,#49,.T.);
#132=EDGE_CURVE('',#76,#76,#100,.T.);
#133=EDGE_CURVE('',#69,#77,#101,.T.);
#134=EDGE_CURVE('',#77,#78,#102,.T.);
#135=EDGE_CURVE('',#78,#68,#103,.T.);
#136=EDGE_CURVE('',#71,#79,#104,.T.);
#137=EDGE_CURVE('',#79,#77,#50,.T.);
#138=EDGE_CURVE('',#80,#70,#105,.T.);
#139=EDGE_CURVE('',#78,#80,#51,.T.);
#140=EDGE_CURVE('',#80,#79,#106,.T.);
#141=EDGE_CURVE('',#73,#81,#107,.T.);
#142=EDGE_CURVE('',#81,#82,#108,.T.);
#143=EDGE_CURVE('',#82,#72,#109,.T.);
#144=EDGE_CURVE('',#75,#83,#110,.T.);
#145=EDGE_CURVE('',#83,#81,#52,.T.);
#146=EDGE_CURVE('',#84,#74,#111,.T.);
#147=EDGE_CURVE('',#82,#84,#53,.T.);
#148=EDGE_CURVE('',#84,#83,#112,.T.);
#149=EDGE_CURVE('',#85,#85,#113,.T.);
#150=EDGE_CURVE('',#86,#86,#114,.T.);
#151=EDGE_CURVE('',#87,#87,#115,.T.);
#152=EDGE_CURVE('',#88,#88,#116,.T.);
#153=EDGE_CURVE('',#89,#89,#117,.T.);
#154=EDGE_CURVE('',#90,#90,#118,.T.);
#155=EDGE_CURVE('',#91,#91,#119,.T.);
#156=ORIENTED_EDGE('',*,*,#120,.F.);
#157=ORIENTED_EDGE('',*,*,#121,.F.);
#158=ORIENTED_EDGE('',*,*,#120,.T.);
#159=ORIENTED_EDGE('',*,*,#122,.F.);
#160=ORIENTED_EDGE('',*,*,#123,.F.);
#161=ORIENTED_EDGE('',*,*,#122,.T.);
#162=ORIENTED_EDGE('',*,*,#124,.F.);
#163=ORIENTED_EDGE('',*,*,#125,.T.);
#164=ORIENTED_EDGE('',*,*,#126,.F.);
#165=ORIENTED_EDGE('',*,*,#127,.T.);
#166=ORIENTED_EDGE('',*,*,#128,.F.);
#167=ORIENTED_EDGE('',*,*,#129,.T.);
#168=ORIENTED_EDGE('',*,*,#130,.F.);
#169=ORIENTED_EDGE('',*,*,#131,.T.);
#170=ORIENTED_EDGE('',*,*,#132,.T.);
#171=ORIENTED_EDGE('',*,*,#123,.T.);
#172=ORIENTED_EDGE('',*,*,#121,.T.);
#173=ORIENTED_EDGE('',*,*,#133,.T.);
#174=ORIENTED_EDGE('',*,*,#134,.T.);
#175=ORIENTED_EDGE('',*,*,#135,.T.);
#176=ORIENTED_EDGE('',*,*,#124,.T.);
#177=ORIENTED_EDGE('',*,*,#136,.T.);
#178=ORIENTED_EDGE('',*,*,#137,.T.);
#179=ORIENTED_EDGE('',*,*,#133,.F.);
#180=ORIENTED_EDGE('',*,*,#127,.F.);
#181=ORIENTED_EDGE('',*,*,#138,.T.);
#182=ORIENTED_EDGE('',*,*,#125,.F.);
#183=ORIENTED_EDGE('',*,*,#135,.F.);
#184=ORIENTED_EDGE('',*,*,#139,.T.);
#185=ORIENTED_EDGE('',*,*,#136,.F.);
#186=ORIENTED_EDGE('',*,*,#126,.T.);
#187=ORIENTED_EDGE('',*,*,#138,.F.);
#188=ORIENTED_EDGE('',*,*,#140,.T.);
#189=ORIENTED_EDGE('',*,*,#134,.F.);
#190=ORIENTED_EDGE('',*,*,#137,.F.);
#191=ORIENTED_EDGE('',*,*,#140,.F.);
#192=ORIENTED_EDGE('',*,*,#139,.F.);
#193=ORIENTED_EDGE('',*,*,#141,.T.);
#194=ORIENTED_EDGE('',*,*,#142,.T.);
#195=ORIENTED_EDGE('',*,*,#143,.T.);
#196=ORIENTED_EDGE('',*,*,#128,.T.);
#197=ORIENTED_EDGE('',*,*,#144,.T.);
#198=ORIENTED_EDGE('',*,*,#145,.T.);
#199=ORIENTED_EDGE('',*,*,#141,.F.);
#200=ORIENTED_EDGE('',*,*,#131,.F.);
#201=ORIENTED_EDGE('',*,*,#146,.T.);
#202=ORIENTED_EDGE('',*,*,#129,.F.);
#203=ORIENTED_EDGE('',*,*,#143,.F.);
#204=ORIENTED_EDGE('',*,*,#147,.T.);
#205=ORIENTED_EDGE('',*,*,#144,.F.);
#206=ORIENTED_EDGE('',*,*,#130,.T.);
#207=ORIENTED_EDGE('',*,*,#146,.F.);
#208=ORIENTED_EDGE('',*,*,#148,.T.);
#209=ORIENTED_EDGE('',*,*,#142,.F.);
#210=ORIENTED_EDGE('',*,*,#145,.F.);
#211=ORIENTED_EDGE('',*,*,#148,.F.);
#212=ORIENTED_EDGE('',*,*,#147,.F.);
#213=ORIENTED_EDGE('',*,*,#149,.T.);
#214=ORIENTED_EDGE('',*,*,#150,.F.);
#215=ORIENTED_EDGE('',*,*,#149,.F.);
#216=ORIENTED_EDGE('',*,*,#132,.F.);
#217=ORIENTED_EDGE('',*,*,#151,.F.);
#218=ORIENTED_EDGE('',*,*,#152,.T.);
#219=ORIENTED_EDGE('',*,*,#153,.T.);
#220=ORIENTED_EDGE('',*,*,#151,.T.);
#221=ORIENTED_EDGE('',*,*,#152,.F.);
#222=ORIENTED_EDGE('',*,*,#150,.T.);
#223=ORIENTED_EDGE('',*,*,#153,.F.);
#224=ORIENTED_EDGE('',*,*,#154,.F.);
#225=ORIENTED_EDGE('',*,*,#155,.T.);
#226=ORIENTED_EDGE('',*,*,#154,.T.);
#227=ORIENTED_EDGE('',*,*,#155,.F.);
#228=EDGE_LOOP('',(#156));
#229=EDGE_LOOP('',(#157));
#230=EDGE_LOOP('',(#158));
#231=EDGE_LOOP('',(#159));
#232=EDGE_LOOP('',(#160));
#233=EDGE_LOOP('',(#161));
#234=EDGE_LOOP('',(#162,#163,#164,#165));
#235=EDGE_LOOP('',(#166,#167,#168,#169));
#236=EDGE_LOOP('',(#170));
#237=EDGE_LOOP('',(#171));
#238=EDGE_LOOP('',(#172));
#239=EDGE_LOOP('',(#173,#174,#175,#176));
#240=EDGE_LOOP('',(#177,#178,#179,#180));
#241=EDGE_LOOP('',(#181,#182,#183,#184));
#242=EDGE_LOOP('',(#185,#186,#187,#188));
#243=EDGE_LOOP('',(#189,#190,#191,#192));
#244=EDGE_LOOP('',(#193,#194,#195,#196));
#245=EDGE_LOOP('',(#197,#198,#199,#200));
#246=EDGE_LOOP('',(#201,#202,#203,#204));
#247=EDGE_LOOP('',(#205,#206,#207,#208));
#248=EDGE_LOOP('',(#209,#210,#211,#212));
#249=EDGE_LOOP('',(#213));
#250=EDGE_LOOP('',(#214));
#251=EDGE_LOOP('',(#215));
#252=EDGE_LOOP('',(#216));
#253=EDGE_LOOP('',(#217));
#254=EDGE_LOOP('',(#218));
#255=EDGE_LOOP('',(#219));
#256=EDGE_LOOP('',(#220));
#257=EDGE_LOOP('',(#221));
#258=EDGE_LOOP('',(#222));
#259=EDGE_LOOP('',(#223));
#260=EDGE_LOOP('',(#224));
#261=EDGE_LOOP('',(#225));
#262=EDGE_LOOP('',(#226));
#263=EDGE_LOOP('',(#227));
#264=FACE_BOUND('',#228,.T.);
#265=FACE_BOUND('',#229,.T.);
#266=FACE_BOUND('',#230,.T.);
#267=FACE_BOUND('',#231,.T.);
#268=FACE_BOUND('',#232,.T.);
#269=FACE_BOUND('',#233,.T.);
#270=FACE_BOUND('',#234,.T.);
#271=FACE_BOUND('',#235,.T.);
#272=FACE_BOUND('',#236,.T.);
#273=FACE_BOUND('',#237,.T.);
#274=FACE_BOUND('',#238,.T.);
#275=FACE_BOUND('',#239,.T.);
#276=FACE_BOUND('',#240,.T.);
#277=FACE_BOUND('',#241,.T.);
#278=FACE_BOUND('',#242,.T.);
#279=FACE_BOUND('',#243,.T.);
#280=FACE_BOUND('',#244,.T.);
#281=FACE_BOUND('',#245,.T.);
#282=FACE_BOUND('',#246,.T.);
#283=FACE_BOUND('',#247,.T.);
#284=FACE_BOUND('',#248,.T.);
#285=FACE_BOUND('',#249,.T.);
#286=FACE_BOUND('',#250,.T.);
#287=FACE_BOUND('',#251,.T.);
#288=FACE_BOUND('',#252,.T.);
#289=FACE_BOUND('',#253,.T.);
#290=FACE_BOUND('',#254,.T.);
#291=FACE_BOUND('',#255,.T.);
#292=FACE_BOUND('',#256,.T.);
#293=FACE_BOUND('',#257,.T.);
#294=FACE_BOUND('',#258,.T.);
#295=FACE_BOUND('',#259,.T.);
#296=FACE_BOUND('',#260,.F.);
#297=FACE_BOUND('',#261,.F.);
#298=FACE_BOUND('',#262,.F.);
#299=FACE_BOUND('',#263,.F.);
#300=ADVANCED_FACE('',(#264,#265),#562,.F.);
#301=ADVANCED_FACE('',(#266),#54,.T.);
#302=ADVANCED_FACE('',(#267,#268),#563,.F.);
#303=ADVANCED_FACE('',(#269),#55,.T.);
#304=ADVANCED_FACE('',(#270,#271,#272,#273,#274),#56,.T.);
#305=ADVANCED_FACE('',(#275),#34,.T.);
#306=ADVANCED_FACE('',(#276),#564,.T.);
#307=ADVANCED_FACE('',(#277),#565,.T.);
#308=ADVANCED_FACE('',(#278),#35,.T.);
#309=ADVANCED_FACE('',(#279),#57,.T.);
#310=ADVANCED_FACE('',(#280),#36,.T.);
#311=ADVANCED_FACE('',(#281),#566,.T.);
#312=ADVANCED_FACE('',(#282),#567,.T.);
#313=ADVANCED_FACE('',(#283),#37,.T.);
#314=ADVANCED_FACE('',(#284),#58,.T.);
#315=ADVANCED_FACE('',(#285,#286),#568,.T.);
#316=ADVANCED_FACE('',(#287),#59,.T.);
#317=ADVANCED_FACE('',(#288,#289),#569,.F.);
#318=ADVANCED_FACE('',(#290,#291),#570,.T.);
#319=ADVANCED_FACE('',(#292,#293),#60,.T.);
#320=ADVANCED_FACE('',(#294,#295),#61,.F.);
#321=ADVANCED_FACE('',(#296,#297),#571,.T.);
#322=ADVANCED_FACE('',(#298),#62,.F.);
#323=ADVANCED_FACE('',(#299),#63,.T.);
#324=AXIS2_PLACEMENT_3D('',#474,#376,#377);
#325=AXIS2_PLACEMENT_3D('',#475,#378,#379);
#326=AXIS2_PLACEMENT_3D('',#477,#380,#381);
#327=AXIS2_PLACEMENT_3D('',#479,#382,$);
#328=AXIS2_PLACEMENT_3D('',#480,#383,#384);
#329=AXIS2_PLACEMENT_3D('',#481,#385,#386);
#330=AXIS2_PLACEMENT_3D('',#483,#387,#388);
#331=AXIS2_PLACEMENT_3D('',#485,#389,$);
#332=AXIS2_PLACEMENT_3D('',#486,#390,$);
#333=AXIS2_PLACEMENT_3D('',#487,#391,#392);
#334=AXIS2_PLACEMENT_3D('',#492,#394,#395);
#335=AXIS2_PLACEMENT_3D('',#495,#397,#398);
#336=AXIS2_PLACEMENT_3D('',#500,#400,#401);
#337=AXIS2_PLACEMENT_3D('',#503,#403,#404);
#338=AXIS2_PLACEMENT_3D('',#505,#405,$);
#339=AXIS2_PLACEMENT_3D('',#506,#406,#407);
#340=AXIS2_PLACEMENT_3D('',#508,#408,#409);
#341=AXIS2_PLACEMENT_3D('',#510,#410,#411);
#342=AXIS2_PLACEMENT_3D('',#511,#412,#413);
#343=AXIS2_PLACEMENT_3D('',#512,#414,#415);
#344=AXIS2_PLACEMENT_3D('',#515,#417,#418);
#345=AXIS2_PLACEMENT_3D('',#516,#419,#420);
#346=AXIS2_PLACEMENT_3D('',#519,#422,$);
#347=AXIS2_PLACEMENT_3D('',#520,#423,#424);
#348=AXIS2_PLACEMENT_3D('',#521,#425,$);
#349=AXIS2_PLACEMENT_3D('',#522,#426,$);
#350=AXIS2_PLACEMENT_3D('',#523,#427,#428);
#351=AXIS2_PLACEMENT_3D('',#525,#429,#430);
#352=AXIS2_PLACEMENT_3D('',#527,#431,#432);
#353=AXIS2_PLACEMENT_3D('',#528,#433,#434);
#354=AXIS2_PLACEMENT_3D('',#529,#435,#436);
#355=AXIS2_PLACEMENT_3D('',#532,#438,#439);
#356=AXIS2_PLACEMENT_3D('',#533,#440,#441);
#357=AXIS2_PLACEMENT_3D('',#536,#443,$);
#358=AXIS2_PLACEMENT_3D('',#537,#444,#445);
#359=AXIS2_PLACEMENT_3D('',#538,#446,$);
#360=AXIS2_PLACEMENT_3D('',#539,#447,#448);
#361=AXIS2_PLACEMENT_3D('',#540,#449,#450);
#362=AXIS2_PLACEMENT_3D('',#542,#451,#452);
#363=AXIS2_PLACEMENT_3D('',#544,#453,$);
#364=AXIS2_PLACEMENT_3D('',#545,#454,#455);
#365=AXIS2_PLACEMENT_3D('',#546,#456,#457);
#366=AXIS2_PLACEMENT_3D('',#548,#458,#459);
#367=AXIS2_PLACEMENT_3D('',#549,#460,#461);
#368=AXIS2_PLACEMENT_3D('',#551,#462,#463);
#369=AXIS2_PLACEMENT_3D('',#553,#464,$);
#370=AXIS2_PLACEMENT_3D('',#554,#465,$);
#371=AXIS2_PLACEMENT_3D('',#555,#466,#467);
#372=AXIS2_PLACEMENT_3D('',#556,#468,#469);
#373=AXIS2_PLACEMENT_3D('',#558,#470,#471);
#374=AXIS2_PLACEMENT_3D('',#560,#472,$);
#375=AXIS2_PLACEMENT_3D('',#561,#473,$);
#376=DIRECTION('',(0.,0.,-1.));
#377=DIRECTION('',(0.3,0.,0.));
#378=DIRECTION('',(0.,0.,1.));
#379=DIRECTION('',(0.3,0.,0.));
#380=DIRECTION('',(0.,0.,-1.));
#381=DIRECTION('',(0.3,0.,0.));
#382=DIRECTION('',(0.,0.,1.));
#383=DIRECTION('',(0.,0.,-1.));
#384=DIRECTION('',(0.3,0.,0.));
#385=DIRECTION('',(0.,0.,1.));
#386=DIRECTION('',(0.3,0.,0.));
#387=DIRECTION('',(0.,0.,-1.));
#388=DIRECTION('',(0.3,0.,0.));
#389=DIRECTION('',(0.,0.,1.));
#390=DIRECTION('',(0.,0.,1.));
#391=DIRECTION('',(0.,0.,-1.));
#392=DIRECTION('',(-0.353553390593274,-0.353553390593274,0.));
#393=DIRECTION('',(1.,0.,0.));
#394=DIRECTION('',(0.,0.,-1.));
#395=DIRECTION('',(0.353553390593274,-0.353553390593274,0.));
#396=DIRECTION('',(-1.,-1.11022302462516E-16,0.));
#397=DIRECTION('',(0.,0.,-1.));
#398=DIRECTION('',(-0.353553390593274,0.353553390593274,0.));
#399=DIRECTION('',(1.,0.,0.));
#400=DIRECTION('',(0.,0.,-1.));
#401=DIRECTION('',(0.353553390593274,0.353553390593274,0.));
#402=DIRECTION('',(-1.,0.,0.));
#403=DIRECTION('',(0.,0.,1.));
#404=DIRECTION('',(2.5,0.,0.));
#405=DIRECTION('',(-4.78320511561248E-32,5.05915925689781E-31,-1.));
#406=DIRECTION('',(-1.,-1.05301113736406E-16,-1.93693387738455E-46));
#407=DIRECTION('',(0.,-0.25,-1.11022302462516E-15));
#408=DIRECTION('',(-4.78320511561248E-32,5.05915925689781E-31,-1.));
#409=DIRECTION('',(-0.25,6.93889390390723E-17,1.19580127890312E-32));
#410=DIRECTION('',(-1.,2.16323416198922E-16,-3.0978415951683E-47));
#411=DIRECTION('',(0.,0.,0.25));
#412=DIRECTION('',(-1.,-1.11022302462516E-16,4.78320511561248E-32));
#413=DIRECTION('',(1.96261557335472E-17,-0.176776695296637,0.176776695296637));
#414=DIRECTION('',(-1.,-1.11022302462516E-16,4.78320511561248E-32));
#415=DIRECTION('',(0.,-0.25,-1.11022302462516E-15));
#416=DIRECTION('',(-1.,-1.11022302462516E-16,4.78320511561247E-32));
#417=DIRECTION('',(1.,0.,-4.78320511561248E-32));
#418=DIRECTION('',(0.,0.176776695296637,0.176776695296637));
#419=DIRECTION('',(-1.,0.,4.78320511561248E-32));
#420=DIRECTION('',(0.,0.,0.25));
#421=DIRECTION('',(1.,0.,-4.78320511561248E-32));
#422=DIRECTION('',(-4.78320511561248E-32,5.05915925689781E-31,-1.));
#423=DIRECTION('',(-4.78320511561248E-32,5.05915925689781E-31,-1.));
#424=DIRECTION('',(0.25,6.32394907112227E-32,-1.19580127890312E-32));
#425=DIRECTION('',(4.78320511561248E-32,-5.05915925689781E-31,1.));
#426=DIRECTION('',(-1.10381656514133E-32,-3.8173656211138E-30,-1.));
#427=DIRECTION('',(-1.,-3.82856869892697E-16,1.46150465293561E-45));
#428=DIRECTION('',(0.,-0.25,-1.11022302462516E-15));
#429=DIRECTION('',(-1.10381656514133E-32,-3.8173656211138E-30,-1.));
#430=DIRECTION('',(-0.25,-4.77170702639225E-31,2.75954141285333E-33));
#431=DIRECTION('',(-1.,-6.12323399573696E-17,2.33746229453608E-46));
#432=DIRECTION('',(0.,0.,0.25));
#433=DIRECTION('',(-1.,0.,1.10381656514133E-32));
#434=DIRECTION('',(0.,-0.176776695296637,0.176776695296637));
#435=DIRECTION('',(-1.,0.,1.10381656514133E-32));
#436=DIRECTION('',(0.,-0.25,-1.11022302462516E-15));
#437=DIRECTION('',(-1.,0.,1.10381656514133E-32));
#438=DIRECTION('',(1.,0.,-1.10381656514133E-32));
#439=DIRECTION('',(0.,0.176776695296637,0.176776695296637));
#440=DIRECTION('',(-1.,0.,1.10381656514133E-32));
#441=DIRECTION('',(0.,0.,0.25));
#442=DIRECTION('',(1.,0.,-1.10381656514133E-32));
#443=DIRECTION('',(-1.10381656514133E-32,-3.8173656211138E-30,-1.));
#444=DIRECTION('',(-1.10381656514133E-32,-3.8173656211138E-30,-1.));
#445=DIRECTION('',(0.25,-1.38777878078145E-16,-2.75954141285281E-33));
#446=DIRECTION('',(1.10381656514133E-32,3.8173656211138E-30,1.));
#447=DIRECTION('',(0.,0.,-1.));
#448=DIRECTION('',(-2.8125,0.,0.));
#449=DIRECTION('',(0.,0.,1.));
#450=DIRECTION('',(-2.8125,0.,0.));
#451=DIRECTION('',(0.,0.,1.));
#452=DIRECTION('',(-2.8125,0.,0.));
#453=DIRECTION('',(0.,0.,-1.));
#454=DIRECTION('',(0.,0.,-1.));
#455=DIRECTION('',(2.5,0.,0.));
#456=DIRECTION('',(0.,0.,-1.));
#457=DIRECTION('',(2.5,0.,0.));
#458=DIRECTION('',(0.,0.,1.));
#459=DIRECTION('',(3.,0.,0.));
#460=DIRECTION('',(0.,0.,-1.));
#461=DIRECTION('',(3.,0.,0.));
#462=DIRECTION('',(0.,0.,1.));
#463=DIRECTION('',(3.,0.,0.));
#464=DIRECTION('',(0.,0.,1.));
#465=DIRECTION('',(0.,0.,1.));
#466=DIRECTION('',(0.3583679495453,-0.933580426497202,0.));
#467=DIRECTION('',(0.,0.,0.0864992762618529));
#468=DIRECTION('',(-0.3583679495453,0.933580426497202,0.));
#469=DIRECTION('',(0.,0.,0.0864992762618529));
#470=DIRECTION('',(-0.3583679495453,0.933580426497202,0.));
#471=DIRECTION('',(0.,0.,0.0864992762618529));
#472=DIRECTION('',(-0.3583679495453,0.933580426497202,0.));
#473=DIRECTION('',(-0.3583679495453,0.933580426497202,0.));
#474=CARTESIAN_POINT('',(1.5,0.,2.45));
#475=CARTESIAN_POINT('',(1.5,0.,2.2));
#476=CARTESIAN_POINT('',(1.8,0.,2.2));
#477=CARTESIAN_POINT('',(1.5,0.,2.45));
#478=CARTESIAN_POINT('',(1.8,0.,2.45));
#479=CARTESIAN_POINT('',(1.5,0.,2.2));
#480=CARTESIAN_POINT('',(-1.5,0.,2.45));
#481=CARTESIAN_POINT('',(-1.5,0.,2.2));
#482=CARTESIAN_POINT('',(-1.2,0.,2.2));
#483=CARTESIAN_POINT('',(-1.5,0.,2.45));
#484=CARTESIAN_POINT('',(-1.2,0.,2.45));
#485=CARTESIAN_POINT('',(-1.5,0.,2.2));
#486=CARTESIAN_POINT('',(0.,0.,2.45));
#487=CARTESIAN_POINT('',(-0.75,1.,2.45));
#488=CARTESIAN_POINT('',(-0.75,1.5,2.45));
#489=CARTESIAN_POINT('',(-0.75,0.5,2.45));
#490=CARTESIAN_POINT('',(-6.93889390390723E-17,1.5,2.45));
#491=CARTESIAN_POINT('',(0.75,1.5,2.45));
#492=CARTESIAN_POINT('',(0.75,1.,2.45));
#493=CARTESIAN_POINT('',(0.75,0.5,2.45));
#494=CARTESIAN_POINT('',(-2.77555756156289E-17,0.5,2.45));
#495=CARTESIAN_POINT('',(-0.75,-1.,2.45));
#496=CARTESIAN_POINT('',(-0.75,-0.5,2.45));
#497=CARTESIAN_POINT('',(-0.75,-1.5,2.45));
#498=CARTESIAN_POINT('',(0.,-0.5,2.45));
#499=CARTESIAN_POINT('',(0.75,-0.5,2.45));
#500=CARTESIAN_POINT('',(0.75,-1.,2.45));
#501=CARTESIAN_POINT('',(0.75,-1.5,2.45));
#502=CARTESIAN_POINT('',(-6.93889390390723E-17,-1.5,2.45));
#503=CARTESIAN_POINT('',(0.,0.,2.45));
#504=CARTESIAN_POINT('',(2.5,0.,2.45));
#505=CARTESIAN_POINT('',(-0.75,1.,2.45));
#506=CARTESIAN_POINT('',(-0.75,0.75,2.45));
#507=CARTESIAN_POINT('',(-0.75,0.75,2.7));
#508=CARTESIAN_POINT('',(-0.75,1.,2.7));
#509=CARTESIAN_POINT('',(-0.75,1.25,2.7));
#510=CARTESIAN_POINT('',(-0.75,1.25,2.45));
#511=CARTESIAN_POINT('',(-6.62348963554781E-17,0.75,2.45));
#512=CARTESIAN_POINT('',(0.75,0.75,2.45));
#513=CARTESIAN_POINT('',(0.75,0.75,2.7));
#514=CARTESIAN_POINT('',(-6.62348963554781E-17,0.75,2.7));
#515=CARTESIAN_POINT('',(-1.3562383539455E-16,1.25,2.45));
#516=CARTESIAN_POINT('',(0.75,1.25,2.45));
#517=CARTESIAN_POINT('',(0.75,1.25,2.7));
#518=CARTESIAN_POINT('',(-1.3562383539455E-16,1.25,2.7));
#519=CARTESIAN_POINT('',(0.75,1.,2.45));
#520=CARTESIAN_POINT('',(0.75,1.,2.7));
#521=CARTESIAN_POINT('',(-1.32469792710956E-16,1.,2.7));
#522=CARTESIAN_POINT('',(-0.75,-1.,2.45));
#523=CARTESIAN_POINT('',(-0.75,-1.25,2.45));
#524=CARTESIAN_POINT('',(-0.75,-1.25,2.7));
#525=CARTESIAN_POINT('',(-0.75,-1.,2.7));
#526=CARTESIAN_POINT('',(-0.75,-0.75,2.7));
#527=CARTESIAN_POINT('',(-0.75,-0.75,2.45));
#528=CARTESIAN_POINT('',(-1.17600734345441E-16,-1.25,2.45));
#529=CARTESIAN_POINT('',(0.75,-1.25,2.45));
#530=CARTESIAN_POINT('',(0.75,-1.25,2.7));
#531=CARTESIAN_POINT('',(-1.17600734345441E-16,-1.25,2.7));
#532=CARTESIAN_POINT('',(-4.82117953063684E-17,-0.75,2.45));
#533=CARTESIAN_POINT('',(0.75,-0.75,2.45));
#534=CARTESIAN_POINT('',(0.75,-0.75,2.7));
#535=CARTESIAN_POINT('',(-4.82117953063684E-17,-0.75,2.7));
#536=CARTESIAN_POINT('',(0.75,-1.,2.45));
#537=CARTESIAN_POINT('',(0.75,-1.,2.7));
#538=CARTESIAN_POINT('',(-9.64235906127368E-17,-1.,2.7));
#539=CARTESIAN_POINT('',(0.,0.,0.));
#540=CARTESIAN_POINT('',(0.,0.,-0.1));
#541=CARTESIAN_POINT('',(-2.8125,0.,-0.1));
#542=CARTESIAN_POINT('',(0.,0.,0.));
#543=CARTESIAN_POINT('',(-2.8125,0.,0.));
#544=CARTESIAN_POINT('',(0.,0.,-0.1));
#545=CARTESIAN_POINT('',(0.,0.,2.7));
#546=CARTESIAN_POINT('',(0.,0.,2.7));
#547=CARTESIAN_POINT('',(2.5,0.,2.7));
#548=CARTESIAN_POINT('',(0.,0.,0.));
#549=CARTESIAN_POINT('',(0.,0.,2.7));
#550=CARTESIAN_POINT('',(3.,0.,2.7));
#551=CARTESIAN_POINT('',(0.,0.,0.));
#552=CARTESIAN_POINT('',(3.,0.,0.));
#553=CARTESIAN_POINT('',(0.,0.,2.7));
#554=CARTESIAN_POINT('',(0.,0.,0.));
#555=CARTESIAN_POINT('',(2.35885406438879,0.905479239215971,0.763551518321037));
#556=CARTESIAN_POINT('',(2.53803803916144,0.43868902596737,0.763551518321037));
#557=CARTESIAN_POINT('',(2.53803803916144,0.43868902596737,0.85005079458289));
#558=CARTESIAN_POINT('',(2.35885406438879,0.905479239215971,0.763551518321037));
#559=CARTESIAN_POINT('',(2.35885406438879,0.905479239215971,0.85005079458289));
#560=CARTESIAN_POINT('',(2.53803803916144,0.43868902596737,0.763551518321037));
#561=CARTESIAN_POINT('',(2.35885406438879,0.905479239215971,0.763551518321037));
#562=CYLINDRICAL_SURFACE('',#324,0.3);
#563=CYLINDRICAL_SURFACE('',#328,0.3);
#564=CYLINDRICAL_SURFACE('',#342,0.25);
#565=CYLINDRICAL_SURFACE('',#344,0.25);
#566=CYLINDRICAL_SURFACE('',#353,0.25);
#567=CYLINDRICAL_SURFACE('',#355,0.25);
#568=CYLINDRICAL_SURFACE('',#360,2.8125);
#569=CYLINDRICAL_SURFACE('',#364,2.5);
#570=CYLINDRICAL_SURFACE('',#366,3.);
#571=CYLINDRICAL_SURFACE('',#371,0.0864992762618529);
#572=CLOSED_SHELL('',(#300,#301,#302,#303,#304,#305,#306,#307,#308,#309,
#310,#311,#312,#313,#314,#315,#316,#317,#318,#319,#320));
#573=CLOSED_SHELL('',(#321,#322,#323));
#574=BREP_WITH_VOIDS('',#572,(#33));
#575=ADVANCED_BREP_SHAPE_REPRESENTATION('',(#574),#32);
ENDSEC;
END-ISO-10303-21;
