ISO-10303-21;
HEADER;
/* Generated by software containing ST-Developer
 * from STEP Tools, Inc. (www.steptools.com) 
 */

FILE_DESCRIPTION(
/* description */ ('Alibre Inc.'),
/* implementation_level */ '2;1');

FILE_NAME(
/* name */ 'export-F344FCC4-B1A9-44FA-BCE3-7D467DD81D36',
/* time_stamp */ '2019-01-27T15:10:30-06:00',
/* author */ (''),
/* organization */ (''),
/* preprocessor_version */ 'ST-DEVELOPER v17',
/* originating_system */ 'Alibre',
/* authorisation */ '');

FILE_SCHEMA (('AUTOMOTIVE_DESIGN'));
ENDSEC;

DATA;
#10=MECHANICAL_DESIGN_GEOMETRIC_PRESENTATION_REPRESENTATION('NAME_0',(),
#32);
#11=COLOUR_RGB('',0.882352941176471,0.882352941176471,0.882352941176471);
#12=FILL_AREA_STYLE_COLOUR('NAME_0',#11);
#13=FILL_AREA_STYLE('NAME_0',(#12));
#14=SURFACE_STYLE_FILL_AREA(#13);
#15=SURFACE_SIDE_STYLE('NAME_0',(#14));
#16=SURFACE_STYLE_USAGE(.POSITIVE.,#15);
#17=PRESENTATION_STYLE_ASSIGNMENT((#16));
#18=PRODUCT_DEFINITION_CONTEXT('part definition',#25,'design');
#19=SHAPE_DEFINITION_REPRESENTATION(#20,#463);
#20=PRODUCT_DEFINITION_SHAPE('PRODUCT_VERSION_ID',
'PRODUCT_VERSION_DESCR',#21);
#21=PRODUCT_DEFINITION('PRODUCT_VERSION_ID','PRODUCT_VERSION_DESCR',#22,
#18);
#22=PRODUCT_DEFINITION_FORMATION_WITH_SPECIFIED_SOURCE(
'PRODUCT_VERSION_ID','PRODUCT_VERSION_DESCR',#27,.MADE.);
#23=PRODUCT_RELATED_PRODUCT_CATEGORY('part','part',(#27));
#24=APPLICATION_PROTOCOL_DEFINITION('Draft International Standard',
'automotive_design',1994,#25);
#25=APPLICATION_CONTEXT('automotive_Design');
#26=PRODUCT_CONTEXT('3D Mechanical Parts',#25,'mechanical');
#27=PRODUCT('','SP-2804Y','',(#26));
#28=(
LENGTH_UNIT()
NAMED_UNIT(*)
SI_UNIT(.MILLI.,.METRE.)
);
#29=(
NAMED_UNIT(*)
PLANE_ANGLE_UNIT()
SI_UNIT($,.RADIAN.)
);
#30=(
NAMED_UNIT(*)
SI_UNIT($,.STERADIAN.)
SOLID_ANGLE_UNIT()
);
#31=UNCERTAINTY_MEASURE_WITH_UNIT(LENGTH_MEASURE(1.E-6),#28,
'DISTANCE_ACCURACY_VALUE',
'Maximum model space distance between geometric entities at asserted c
onnectivities');
#32=(
GEOMETRIC_REPRESENTATION_CONTEXT(3)
GLOBAL_UNCERTAINTY_ASSIGNED_CONTEXT((#31))
GLOBAL_UNIT_ASSIGNED_CONTEXT((#30,#29,#28))
REPRESENTATION_CONTEXT('ID1','3D')
);
#33=ORIENTED_CLOSED_SHELL('',*,#461,.F.);
#34=CONICAL_SURFACE('',#281,10.4261461496353,1.54365674434028);
#35=CIRCLE('',#272,8.25);
#36=CIRCLE('',#273,8.25);
#37=CIRCLE('',#276,13.);
#38=CIRCLE('',#277,13.);
#39=CIRCLE('',#280,12.6);
#40=CIRCLE('',#282,7.);
#41=CIRCLE('',#283,12.375);
#42=CIRCLE('',#286,12.375);
#43=CIRCLE('',#288,13.375);
#44=CIRCLE('',#289,13.375);
#45=CIRCLE('',#292,6.1);
#46=CIRCLE('',#293,6.1);
#47=CIRCLE('',#296,12.6);
#48=CIRCLE('',#299,14.);
#49=CIRCLE('',#300,14.);
#50=CIRCLE('',#304,12.375);
#51=CIRCLE('',#305,12.375);
#52=CYLINDRICAL_SURFACE('',#271,8.25);
#53=CYLINDRICAL_SURFACE('',#275,13.);
#54=CYLINDRICAL_SURFACE('',#285,12.375);
#55=CYLINDRICAL_SURFACE('',#287,13.375);
#56=CYLINDRICAL_SURFACE('',#291,6.1);
#57=CYLINDRICAL_SURFACE('',#295,12.6);
#58=CYLINDRICAL_SURFACE('',#298,14.);
#59=VERTEX_POINT('',#381);
#60=VERTEX_POINT('',#382);
#61=VERTEX_POINT('',#384);
#62=VERTEX_POINT('',#386);
#63=VERTEX_POINT('',#388);
#64=VERTEX_POINT('',#392);
#65=VERTEX_POINT('',#394);
#66=VERTEX_POINT('',#398);
#67=VERTEX_POINT('',#400);
#68=VERTEX_POINT('',#402);
#69=VERTEX_POINT('',#412);
#70=VERTEX_POINT('',#414);
#71=VERTEX_POINT('',#418);
#72=VERTEX_POINT('',#421);
#73=VERTEX_POINT('',#423);
#74=VERTEX_POINT('',#427);
#75=VERTEX_POINT('',#429);
#76=VERTEX_POINT('',#433);
#77=VERTEX_POINT('',#437);
#78=VERTEX_POINT('',#439);
#79=VERTEX_POINT('',#444);
#80=VERTEX_POINT('',#446);
#81=VECTOR('',#308,1.);
#82=VECTOR('',#309,1.);
#83=VECTOR('',#310,1.);
#84=VECTOR('',#311,1.);
#85=VECTOR('',#312,1.);
#86=VECTOR('',#317,1.);
#87=VECTOR('',#321,1.);
#88=VECTOR('',#322,1.);
#89=VECTOR('',#323,1.);
#90=VECTOR('',#324,1.);
#91=LINE('',#380,#81);
#92=LINE('',#383,#82);
#93=LINE('',#385,#83);
#94=LINE('',#387,#84);
#95=LINE('',#389,#85);
#96=LINE('',#393,#86);
#97=LINE('',#397,#87);
#98=LINE('',#399,#88);
#99=LINE('',#401,#89);
#100=LINE('',#403,#90);
#101=EDGE_CURVE('',#59,#60,#91,.T.);
#102=EDGE_CURVE('',#61,#60,#92,.T.);
#103=EDGE_CURVE('',#62,#61,#93,.T.);
#104=EDGE_CURVE('',#62,#63,#94,.T.);
#105=EDGE_CURVE('',#63,#59,#95,.T.);
#106=EDGE_CURVE('',#60,#64,#35,.T.);
#107=EDGE_CURVE('',#65,#64,#96,.T.);
#108=EDGE_CURVE('',#61,#65,#36,.T.);
#109=EDGE_CURVE('',#64,#66,#97,.T.);
#110=EDGE_CURVE('',#67,#66,#98,.T.);
#111=EDGE_CURVE('',#67,#68,#99,.T.);
#112=EDGE_CURVE('',#65,#68,#100,.T.);
#113=EDGE_CURVE('',#66,#59,#37,.T.);
#114=EDGE_CURVE('',#63,#67,#38,.T.);
#115=EDGE_CURVE('',#68,#62,#39,.T.);
#116=EDGE_CURVE('',#69,#69,#40,.T.);
#117=EDGE_CURVE('',#70,#70,#41,.T.);
#118=EDGE_CURVE('',#71,#71,#42,.T.);
#119=EDGE_CURVE('',#72,#72,#43,.T.);
#120=EDGE_CURVE('',#73,#73,#44,.T.);
#121=EDGE_CURVE('',#74,#74,#45,.T.);
#122=EDGE_CURVE('',#75,#75,#46,.T.);
#123=EDGE_CURVE('',#62,#68,#39,.T.);
#124=EDGE_CURVE('',#76,#76,#47,.T.);
#125=EDGE_CURVE('',#77,#77,#48,.T.);
#126=EDGE_CURVE('',#78,#78,#49,.T.);
#127=EDGE_CURVE('',#79,#79,#50,.T.);
#128=EDGE_CURVE('',#80,#80,#51,.T.);
#129=ORIENTED_EDGE('',*,*,#101,.T.);
#130=ORIENTED_EDGE('',*,*,#102,.F.);
#131=ORIENTED_EDGE('',*,*,#103,.F.);
#132=ORIENTED_EDGE('',*,*,#104,.T.);
#133=ORIENTED_EDGE('',*,*,#105,.T.);
#134=ORIENTED_EDGE('',*,*,#106,.T.);
#135=ORIENTED_EDGE('',*,*,#107,.F.);
#136=ORIENTED_EDGE('',*,*,#108,.F.);
#137=ORIENTED_EDGE('',*,*,#102,.T.);
#138=ORIENTED_EDGE('',*,*,#109,.T.);
#139=ORIENTED_EDGE('',*,*,#110,.F.);
#140=ORIENTED_EDGE('',*,*,#111,.T.);
#141=ORIENTED_EDGE('',*,*,#112,.F.);
#142=ORIENTED_EDGE('',*,*,#107,.T.);
#143=ORIENTED_EDGE('',*,*,#113,.T.);
#144=ORIENTED_EDGE('',*,*,#105,.F.);
#145=ORIENTED_EDGE('',*,*,#114,.T.);
#146=ORIENTED_EDGE('',*,*,#110,.T.);
#147=ORIENTED_EDGE('',*,*,#101,.F.);
#148=ORIENTED_EDGE('',*,*,#113,.F.);
#149=ORIENTED_EDGE('',*,*,#109,.F.);
#150=ORIENTED_EDGE('',*,*,#106,.F.);
#151=ORIENTED_EDGE('',*,*,#115,.F.);
#152=ORIENTED_EDGE('',*,*,#111,.F.);
#153=ORIENTED_EDGE('',*,*,#114,.F.);
#154=ORIENTED_EDGE('',*,*,#104,.F.);
#155=ORIENTED_EDGE('',*,*,#116,.T.);
#156=ORIENTED_EDGE('',*,*,#117,.F.);
#157=ORIENTED_EDGE('',*,*,#116,.F.);
#158=ORIENTED_EDGE('',*,*,#117,.T.);
#159=ORIENTED_EDGE('',*,*,#118,.F.);
#160=ORIENTED_EDGE('',*,*,#119,.T.);
#161=ORIENTED_EDGE('',*,*,#120,.F.);
#162=ORIENTED_EDGE('',*,*,#118,.T.);
#163=ORIENTED_EDGE('',*,*,#119,.F.);
#164=ORIENTED_EDGE('',*,*,#121,.T.);
#165=ORIENTED_EDGE('',*,*,#122,.F.);
#166=ORIENTED_EDGE('',*,*,#121,.F.);
#167=ORIENTED_EDGE('',*,*,#123,.T.);
#168=ORIENTED_EDGE('',*,*,#115,.T.);
#169=ORIENTED_EDGE('',*,*,#124,.F.);
#170=ORIENTED_EDGE('',*,*,#112,.T.);
#171=ORIENTED_EDGE('',*,*,#123,.F.);
#172=ORIENTED_EDGE('',*,*,#103,.T.);
#173=ORIENTED_EDGE('',*,*,#108,.T.);
#174=ORIENTED_EDGE('',*,*,#122,.T.);
#175=ORIENTED_EDGE('',*,*,#125,.T.);
#176=ORIENTED_EDGE('',*,*,#126,.T.);
#177=ORIENTED_EDGE('',*,*,#124,.T.);
#178=ORIENTED_EDGE('',*,*,#125,.F.);
#179=ORIENTED_EDGE('',*,*,#120,.T.);
#180=ORIENTED_EDGE('',*,*,#126,.F.);
#181=ORIENTED_EDGE('',*,*,#127,.T.);
#182=ORIENTED_EDGE('',*,*,#128,.T.);
#183=ORIENTED_EDGE('',*,*,#127,.F.);
#184=ORIENTED_EDGE('',*,*,#128,.F.);
#185=EDGE_LOOP('',(#129,#130,#131,#132,#133));
#186=EDGE_LOOP('',(#134,#135,#136,#137));
#187=EDGE_LOOP('',(#138,#139,#140,#141,#142));
#188=EDGE_LOOP('',(#143,#144,#145,#146));
#189=EDGE_LOOP('',(#147,#148,#149,#150));
#190=EDGE_LOOP('',(#151,#152,#153,#154));
#191=EDGE_LOOP('',(#155));
#192=EDGE_LOOP('',(#156));
#193=EDGE_LOOP('',(#157));
#194=EDGE_LOOP('',(#158));
#195=EDGE_LOOP('',(#159));
#196=EDGE_LOOP('',(#160));
#197=EDGE_LOOP('',(#161));
#198=EDGE_LOOP('',(#162));
#199=EDGE_LOOP('',(#163));
#200=EDGE_LOOP('',(#164));
#201=EDGE_LOOP('',(#165));
#202=EDGE_LOOP('',(#166));
#203=EDGE_LOOP('',(#167,#168));
#204=EDGE_LOOP('',(#169));
#205=EDGE_LOOP('',(#170,#171,#172,#173));
#206=EDGE_LOOP('',(#174));
#207=EDGE_LOOP('',(#175));
#208=EDGE_LOOP('',(#176));
#209=EDGE_LOOP('',(#177));
#210=EDGE_LOOP('',(#178));
#211=EDGE_LOOP('',(#179));
#212=EDGE_LOOP('',(#180));
#213=EDGE_LOOP('',(#181));
#214=EDGE_LOOP('',(#182));
#215=EDGE_LOOP('',(#183));
#216=EDGE_LOOP('',(#184));
#217=FACE_BOUND('',#185,.T.);
#218=FACE_BOUND('',#186,.T.);
#219=FACE_BOUND('',#187,.T.);
#220=FACE_BOUND('',#188,.T.);
#221=FACE_BOUND('',#189,.T.);
#222=FACE_BOUND('',#190,.T.);
#223=FACE_BOUND('',#191,.T.);
#224=FACE_BOUND('',#192,.T.);
#225=FACE_BOUND('',#193,.T.);
#226=FACE_BOUND('',#194,.T.);
#227=FACE_BOUND('',#195,.T.);
#228=FACE_BOUND('',#196,.T.);
#229=FACE_BOUND('',#197,.T.);
#230=FACE_BOUND('',#198,.T.);
#231=FACE_BOUND('',#199,.T.);
#232=FACE_BOUND('',#200,.T.);
#233=FACE_BOUND('',#201,.T.);
#234=FACE_BOUND('',#202,.T.);
#235=FACE_BOUND('',#203,.T.);
#236=FACE_BOUND('',#204,.T.);
#237=FACE_BOUND('',#205,.T.);
#238=FACE_BOUND('',#206,.T.);
#239=FACE_BOUND('',#207,.T.);
#240=FACE_BOUND('',#208,.T.);
#241=FACE_BOUND('',#209,.T.);
#242=FACE_BOUND('',#210,.T.);
#243=FACE_BOUND('',#211,.T.);
#244=FACE_BOUND('',#212,.T.);
#245=FACE_BOUND('',#213,.F.);
#246=FACE_BOUND('',#214,.F.);
#247=FACE_BOUND('',#215,.F.);
#248=FACE_BOUND('',#216,.F.);
#249=ADVANCED_FACE('',(#217),#448,.T.);
#250=ADVANCED_FACE('',(#218),#52,.F.);
#251=ADVANCED_FACE('',(#219),#449,.T.);
#252=ADVANCED_FACE('',(#220),#53,.T.);
#253=ADVANCED_FACE('',(#221),#450,.T.);
#254=ADVANCED_FACE('',(#222),#451,.F.);
#255=ADVANCED_FACE('',(#223,#224),#34,.T.);
#256=ADVANCED_FACE('',(#225),#452,.T.);
#257=ADVANCED_FACE('',(#226,#227),#54,.F.);
#258=ADVANCED_FACE('',(#228,#229),#55,.T.);
#259=ADVANCED_FACE('',(#230,#231),#453,.T.);
#260=ADVANCED_FACE('',(#232,#233),#56,.T.);
#261=ADVANCED_FACE('',(#234),#454,.T.);
#262=ADVANCED_FACE('',(#235,#236),#57,.T.);
#263=ADVANCED_FACE('',(#237,#238),#455,.T.);
#264=ADVANCED_FACE('',(#239,#240),#58,.T.);
#265=ADVANCED_FACE('',(#241,#242),#456,.T.);
#266=ADVANCED_FACE('',(#243,#244),#457,.F.);
#267=ADVANCED_FACE('',(#245),#458,.F.);
#268=ADVANCED_FACE('',(#246,#247),#54,.T.);
#269=ADVANCED_FACE('',(#248),#459,.F.);
#270=AXIS2_PLACEMENT_3D('',#379,#307,$);
#271=AXIS2_PLACEMENT_3D('',#390,#313,#314);
#272=AXIS2_PLACEMENT_3D('',#391,#315,#316);
#273=AXIS2_PLACEMENT_3D('',#395,#318,#319);
#274=AXIS2_PLACEMENT_3D('',#396,#320,$);
#275=AXIS2_PLACEMENT_3D('',#404,#325,#326);
#276=AXIS2_PLACEMENT_3D('',#405,#327,#328);
#277=AXIS2_PLACEMENT_3D('',#406,#329,#330);
#278=AXIS2_PLACEMENT_3D('',#407,#331,$);
#279=AXIS2_PLACEMENT_3D('',#408,#332,$);
#280=AXIS2_PLACEMENT_3D('',#409,#333,#334);
#281=AXIS2_PLACEMENT_3D('',#410,#335,#336);
#282=AXIS2_PLACEMENT_3D('',#411,#337,#338);
#283=AXIS2_PLACEMENT_3D('',#413,#339,#340);
#284=AXIS2_PLACEMENT_3D('',#415,#341,$);
#285=AXIS2_PLACEMENT_3D('',#416,#342,#343);
#286=AXIS2_PLACEMENT_3D('',#417,#344,#345);
#287=AXIS2_PLACEMENT_3D('',#419,#346,#347);
#288=AXIS2_PLACEMENT_3D('',#420,#348,#349);
#289=AXIS2_PLACEMENT_3D('',#422,#350,#351);
#290=AXIS2_PLACEMENT_3D('',#424,#352,$);
#291=AXIS2_PLACEMENT_3D('',#425,#353,#354);
#292=AXIS2_PLACEMENT_3D('',#426,#355,#356);
#293=AXIS2_PLACEMENT_3D('',#428,#357,#358);
#294=AXIS2_PLACEMENT_3D('',#430,#359,$);
#295=AXIS2_PLACEMENT_3D('',#431,#360,#361);
#296=AXIS2_PLACEMENT_3D('',#432,#362,#363);
#297=AXIS2_PLACEMENT_3D('',#434,#364,$);
#298=AXIS2_PLACEMENT_3D('',#435,#365,#366);
#299=AXIS2_PLACEMENT_3D('',#436,#367,#368);
#300=AXIS2_PLACEMENT_3D('',#438,#369,#370);
#301=AXIS2_PLACEMENT_3D('',#440,#371,$);
#302=AXIS2_PLACEMENT_3D('',#441,#372,$);
#303=AXIS2_PLACEMENT_3D('',#442,#373,$);
#304=AXIS2_PLACEMENT_3D('',#443,#374,#375);
#305=AXIS2_PLACEMENT_3D('',#445,#376,#377);
#306=AXIS2_PLACEMENT_3D('',#447,#378,$);
#307=DIRECTION('',(1.,0.,0.));
#308=DIRECTION('',(0.,-1.,0.));
#309=DIRECTION('',(0.,0.,1.));
#310=DIRECTION('',(0.,-1.,0.));
#311=DIRECTION('',(0.,1.,0.));
#312=DIRECTION('',(0.,0.,1.));
#313=DIRECTION('',(0.,0.,1.));
#314=DIRECTION('',(8.25,0.,0.));
#315=DIRECTION('',(0.,0.,1.));
#316=DIRECTION('',(8.25,0.,0.));
#317=DIRECTION('',(0.,0.,1.));
#318=DIRECTION('',(0.,0.,1.));
#319=DIRECTION('',(8.25,0.,0.));
#320=DIRECTION('',(-1.,0.,0.));
#321=DIRECTION('',(0.,1.,0.));
#322=DIRECTION('',(0.,0.,1.));
#323=DIRECTION('',(0.,-1.,0.));
#324=DIRECTION('',(0.,1.,0.));
#325=DIRECTION('',(0.,0.,1.));
#326=DIRECTION('',(13.,0.,0.));
#327=DIRECTION('',(0.,0.,-1.));
#328=DIRECTION('',(13.,0.,0.));
#329=DIRECTION('',(0.,0.,1.));
#330=DIRECTION('',(13.,0.,0.));
#331=DIRECTION('',(-3.30148473924165E-33,-6.53365180970228E-31,1.));
#332=DIRECTION('',(-3.30148473924165E-33,-6.53365180970228E-31,1.));
#333=DIRECTION('',(0.,0.,-1.));
#334=DIRECTION('',(12.6,0.,0.));
#335=DIRECTION('',(0.,0.,1.));
#336=DIRECTION('',(0.,10.4261461496353,0.));
#337=DIRECTION('',(0.,0.,1.));
#338=DIRECTION('',(0.,7.,0.));
#339=DIRECTION('',(0.,0.,1.));
#340=DIRECTION('',(-12.375,0.,0.));
#341=DIRECTION('',(0.,2.87468461733299E-16,-1.));
#342=DIRECTION('',(0.,0.,1.));
#343=DIRECTION('',(-12.375,0.,0.));
#344=DIRECTION('',(0.,0.,1.));
#345=DIRECTION('',(-12.375,0.,0.));
#346=DIRECTION('',(0.,0.,-1.));
#347=DIRECTION('',(-13.375,0.,0.));
#348=DIRECTION('',(0.,0.,1.));
#349=DIRECTION('',(-13.375,0.,0.));
#350=DIRECTION('',(0.,0.,1.));
#351=DIRECTION('',(-13.375,0.,0.));
#352=DIRECTION('',(0.,0.,-1.));
#353=DIRECTION('',(0.,0.,1.));
#354=DIRECTION('',(6.1,0.,0.));
#355=DIRECTION('',(0.,0.,-1.));
#356=DIRECTION('',(6.1,0.,0.));
#357=DIRECTION('',(0.,0.,-1.));
#358=DIRECTION('',(6.1,0.,0.));
#359=DIRECTION('',(0.,0.,1.));
#360=DIRECTION('',(0.,0.,1.));
#361=DIRECTION('',(12.6,0.,0.));
#362=DIRECTION('',(0.,0.,-1.));
#363=DIRECTION('',(12.6,0.,0.));
#364=DIRECTION('',(0.,0.,1.));
#365=DIRECTION('',(0.,0.,1.));
#366=DIRECTION('',(14.,0.,0.));
#367=DIRECTION('',(0.,0.,-1.));
#368=DIRECTION('',(14.,0.,0.));
#369=DIRECTION('',(0.,0.,1.));
#370=DIRECTION('',(14.,0.,0.));
#371=DIRECTION('',(0.,0.,1.));
#372=DIRECTION('',(0.,0.,1.));
#373=DIRECTION('',(0.,0.,-1.));
#374=DIRECTION('',(0.,0.,-1.));
#375=DIRECTION('',(-12.375,0.,0.));
#376=DIRECTION('',(0.,1.45266876316135E-16,-1.));
#377=DIRECTION('',(-12.375,0.,0.));
#378=DIRECTION('',(0.,-1.45266876316135E-16,1.));
#379=CARTESIAN_POINT('',(5.25,9.12835546147262,2.8));
#380=CARTESIAN_POINT('',(5.25,6.36396103067893,3.8));
#381=CARTESIAN_POINT('',(5.25,11.8927498922663,3.8));
#382=CARTESIAN_POINT('',(5.25,6.36396103067893,3.8));
#383=CARTESIAN_POINT('',(5.25,6.36396103067893,2.8));
#384=CARTESIAN_POINT('',(5.25,6.36396103067893,2.8));
#385=CARTESIAN_POINT('',(5.25,4.56417773073631,2.8));
#386=CARTESIAN_POINT('',(5.25,11.4541477203675,2.8));
#387=CARTESIAN_POINT('',(5.25,6.36396103067893,2.8));
#388=CARTESIAN_POINT('',(5.25,11.8927498922663,2.8));
#389=CARTESIAN_POINT('',(5.25,11.8927498922663,2.8));
#390=CARTESIAN_POINT('',(0.,0.,2.8));
#391=CARTESIAN_POINT('',(0.,0.,3.8));
#392=CARTESIAN_POINT('',(-5.25,6.36396103067893,3.8));
#393=CARTESIAN_POINT('',(-5.25,6.36396103067893,2.8));
#394=CARTESIAN_POINT('',(-5.25,6.36396103067893,2.8));
#395=CARTESIAN_POINT('',(0.,0.,2.8));
#396=CARTESIAN_POINT('',(-5.25,9.12835546147262,2.8));
#397=CARTESIAN_POINT('',(-5.25,11.8927498922663,3.8));
#398=CARTESIAN_POINT('',(-5.25,11.8927498922663,3.8));
#399=CARTESIAN_POINT('',(-5.25,11.8927498922663,2.8));
#400=CARTESIAN_POINT('',(-5.25,11.8927498922663,2.8));
#401=CARTESIAN_POINT('',(-5.25,11.8927498922663,2.8));
#402=CARTESIAN_POINT('',(-5.25,11.4541477203675,2.8));
#403=CARTESIAN_POINT('',(-5.25,4.56417773073631,2.8));
#404=CARTESIAN_POINT('',(0.,0.,2.8));
#405=CARTESIAN_POINT('',(0.,0.,3.8));
#406=CARTESIAN_POINT('',(0.,0.,2.8));
#407=CARTESIAN_POINT('',(5.55111512312578E-16,9.68049563446519,3.8));
#408=CARTESIAN_POINT('',(5.55111512312578E-16,9.68049563446519,2.8));
#409=CARTESIAN_POINT('',(0.,0.,2.8));
#410=CARTESIAN_POINT('',(0.,0.,0.340721720131101));
#411=CARTESIAN_POINT('',(0.,0.,0.247714708093528));
#412=CARTESIAN_POINT('',(0.,7.,0.247714708093528));
#413=CARTESIAN_POINT('',(0.,0.,0.393625789486004));
#414=CARTESIAN_POINT('',(12.375,1.51550041394485E-15,0.393625789486004));
#415=CARTESIAN_POINT('',(0.,3.5,0.247714708093527));
#416=CARTESIAN_POINT('',(0.,0.,-1.5));
#417=CARTESIAN_POINT('',(0.,0.,-0.5));
#418=CARTESIAN_POINT('',(12.375,1.51550041394485E-15,-0.5));
#419=CARTESIAN_POINT('',(0.,0.,0.));
#420=CARTESIAN_POINT('',(0.,0.,-0.5));
#421=CARTESIAN_POINT('',(-13.375,0.,-0.5));
#422=CARTESIAN_POINT('',(0.,0.,0.));
#423=CARTESIAN_POINT('',(-13.375,0.,0.));
#424=CARTESIAN_POINT('',(0.,0.,-0.5));
#425=CARTESIAN_POINT('',(0.,0.,2.8));
#426=CARTESIAN_POINT('',(0.,0.,4.3));
#427=CARTESIAN_POINT('',(6.1,0.,4.3));
#428=CARTESIAN_POINT('',(0.,0.,2.8));
#429=CARTESIAN_POINT('',(6.1,0.,2.8));
#430=CARTESIAN_POINT('',(0.,0.,4.3));
#431=CARTESIAN_POINT('',(0.,0.,1.5));
#432=CARTESIAN_POINT('',(0.,0.,1.5));
#433=CARTESIAN_POINT('',(12.6,0.,1.5));
#434=CARTESIAN_POINT('',(0.,0.,2.8));
#435=CARTESIAN_POINT('',(0.,0.,0.));
#436=CARTESIAN_POINT('',(0.,0.,1.5));
#437=CARTESIAN_POINT('',(14.,0.,1.5));
#438=CARTESIAN_POINT('',(0.,0.,0.));
#439=CARTESIAN_POINT('',(14.,0.,0.));
#440=CARTESIAN_POINT('',(0.,0.,1.5));
#441=CARTESIAN_POINT('',(0.,0.,0.));
#442=CARTESIAN_POINT('',(0.,0.,0.5));
#443=CARTESIAN_POINT('',(0.,0.,0.5));
#444=CARTESIAN_POINT('',(-12.375,0.,0.5));
#445=CARTESIAN_POINT('',(0.,0.,0.433728732168673));
#446=CARTESIAN_POINT('',(12.375,-1.51550041394485E-15,0.433728732168673));
#447=CARTESIAN_POINT('',(0.,6.9261461496353,0.433728732168673));
#448=PLANE('',#270);
#449=PLANE('',#274);
#450=PLANE('',#278);
#451=PLANE('',#279);
#452=PLANE('',#284);
#453=PLANE('',#290);
#454=PLANE('',#294);
#455=PLANE('',#297);
#456=PLANE('',#301);
#457=PLANE('',#302);
#458=PLANE('',#303);
#459=PLANE('',#306);
#460=CLOSED_SHELL('',(#249,#250,#251,#252,#253,#254,#255,#256,#257,#258,
#259,#260,#261,#262,#263,#264,#265,#266));
#461=CLOSED_SHELL('',(#267,#268,#269));
#462=BREP_WITH_VOIDS('',#460,(#33));
#463=ADVANCED_BREP_SHAPE_REPRESENTATION('',(#462),#32);
ENDSEC;
END-ISO-10303-21;
