ISO-10303-21;
HEADER;
/* Generated by software containing ST-Developer
 * from STEP Tools, Inc. (www.steptools.com) 
 */

FILE_DESCRIPTION(
/* description */ ('Alibre Inc.'),
/* implementation_level */ '2;1');

FILE_NAME(
/* name */ 'export-147B813D-406A-4D55-9C82-B2274C394BB9',
/* time_stamp */ '2018-12-01T10:28:48-06:00',
/* author */ (''),
/* organization */ (''),
/* preprocessor_version */ 'ST-DEVELOPER v17',
/* originating_system */ 'Alibre',
/* authorisation */ '');

FILE_SCHEMA (('CONFIG_CONTROL_DESIGN'));
ENDSEC;

DATA;
#10=MECHANICAL_CONTEXT('detailed design',#18,'mechanical');
#11=PRODUCT_RELATED_PRODUCT_CATEGORY('detail','',(#98));
#12=CC_DESIGN_SECURITY_CLASSIFICATION(#14,(#97));
#13=SECURITY_CLASSIFICATION_LEVEL('unclassified');
#14=SECURITY_CLASSIFICATION('name','Security for version',#13);
#15=SHAPE_DEFINITION_REPRESENTATION(#16,#505);
#16=PRODUCT_DEFINITION_SHAPE('','DefinitionDesc',#96);
#17=APPLICATION_PROTOCOL_DEFINITION('AP definition status',
'config_control_design',1994,#18);
#18=APPLICATION_CONTEXT(
'control the configuration of three dimensional design');
#19=DESIGN_CONTEXT('detailed design',#18,'design');
#20=PERSON_AND_ORGANIZATION_ROLE('creator');
#21=PERSON_AND_ORGANIZATION_ROLE('classification_officer');
#22=PERSON_AND_ORGANIZATION_ROLE('creator');
#23=PERSON_AND_ORGANIZATION_ROLE('design_supplier');
#24=PERSON_AND_ORGANIZATION_ROLE('design_owner');
#25=CC_DESIGN_PERSON_AND_ORGANIZATION_ASSIGNMENT(#57,#20,(#96));
#26=CC_DESIGN_PERSON_AND_ORGANIZATION_ASSIGNMENT(#60,#21,(#14));
#27=CC_DESIGN_PERSON_AND_ORGANIZATION_ASSIGNMENT(#61,#22,(#97));
#28=CC_DESIGN_PERSON_AND_ORGANIZATION_ASSIGNMENT(#62,#23,(#97));
#29=CC_DESIGN_PERSON_AND_ORGANIZATION_ASSIGNMENT(#63,#24,(#98));
#30=DATE_TIME_ROLE('creation_date');
#31=DATE_TIME_ROLE('classification_date');
#32=CC_DESIGN_DATE_AND_TIME_ASSIGNMENT(#86,#30,(#96));
#33=CC_DESIGN_DATE_AND_TIME_ASSIGNMENT(#89,#31,(#14));
#34=CC_DESIGN_APPROVAL(#93,(#96));
#35=CC_DESIGN_APPROVAL(#94,(#97));
#36=CC_DESIGN_APPROVAL(#95,(#14));
#37=APPROVAL_PERSON_ORGANIZATION(#56,#93,#64);
#38=APPROVAL_PERSON_ORGANIZATION(#58,#94,#65);
#39=APPROVAL_PERSON_ORGANIZATION(#59,#95,#66);
#40=ORGANIZATION('DEFINITION_APPROVEDBY_ORG_ID',
'DEFINITION_APPROVEDBY_ORG_NAME','DEFINITION_APPROVEDBY_ORG_DESCR');
#41=ORGANIZATION('DEF_CREATOR_ORG_ID','DEF_CREATOR_ORG_NAME',
'DEF_CREATOR_ORG_DESCR');
#42=ORGANIZATION('APPROVEDBY_ORG_ID','APPROVEDBY_ORG_NAME',
'APPROVEDBY_ORG_DESCR');
#43=ORGANIZATION('SECURITY_APPROVEDBY_ORG_ID',
'SECURITY_APPROVEDBY_ORG_NAME','SECURITY_APPROVEDBY_ORG_DESCR');
#44=ORGANIZATION('CLASSOFFICER_ORG_ID','CLASSOFFICER_ORG_NAME',
'CLASSOFFICER_ORG_DESCR');
#45=ORGANIZATION('CREATOR_ORG_ID','CREATOR_ORG_NAME',
'CREATOR_ORG_DESCR');
#46=ORGANIZATION('SUPPLIER_ORG_ID','SUPPLIER_ORG_NAME',
'SUPPLIER_ORG_DESCR');
#47=ORGANIZATION('OWNER_ORG_ID','OWNER_ORG_NAME','OWNER_ORG_DESCR');
#48=PERSON('DEFINITION_approverID','DEFINITION_APPROVEDBY_LASTNAME',
'DEFINITION_APPROVEDBY_FIRSTNAME',$,$,$);
#49=PERSON('DEF_createrID','DEF_CREATOR_LASTNAME',
'DEF_CREATOR_FIRSTNAME',$,$,$);
#50=PERSON('approverID','APPROVEDBY_LASTNAME','APPROVEDBY_FIRSTNAME',$,
$,$);
#51=PERSON('SECURITY_approverID','SECURITY_LASTNAME',
'SECURITY_APPROVEDBY_FIRSTNAME',$,$,$);
#52=PERSON('classifierID','CLASSOFFICER_LASTNAME',
'CLASSOFFICER_FIRSTNAME',$,$,$);
#53=PERSON('createrID','CREATOR_LASTNAME','CREATOR_FIRSTNAME',$,$,$);
#54=PERSON('supplierID','SUPPLIER_LASTNAME','SUPPLIER_FIRSTNAME',$,$,$);
#55=PERSON('ownerID','OWNER_LASTNAME','OWNER_FIRSTNAME',$,$,$);
#56=PERSON_AND_ORGANIZATION(#48,#40);
#57=PERSON_AND_ORGANIZATION(#49,#41);
#58=PERSON_AND_ORGANIZATION(#50,#42);
#59=PERSON_AND_ORGANIZATION(#51,#43);
#60=PERSON_AND_ORGANIZATION(#52,#44);
#61=PERSON_AND_ORGANIZATION(#53,#45);
#62=PERSON_AND_ORGANIZATION(#54,#46);
#63=PERSON_AND_ORGANIZATION(#55,#47);
#64=APPROVAL_ROLE('definition_approval');
#65=APPROVAL_ROLE('version_approval');
#66=APPROVAL_ROLE('security_approval');
#67=APPROVAL_DATE_TIME(#85,#93);
#68=APPROVAL_DATE_TIME(#87,#94);
#69=APPROVAL_DATE_TIME(#88,#95);
#70=COORDINATED_UNIVERSAL_TIME_OFFSET(6,0,.BEHIND.);
#71=COORDINATED_UNIVERSAL_TIME_OFFSET(6,0,.BEHIND.);
#72=COORDINATED_UNIVERSAL_TIME_OFFSET(6,0,.BEHIND.);
#73=COORDINATED_UNIVERSAL_TIME_OFFSET(6,0,.BEHIND.);
#74=COORDINATED_UNIVERSAL_TIME_OFFSET(6,0,.BEHIND.);
#75=LOCAL_TIME(10,23,36.,#70);
#76=LOCAL_TIME(10,23,36.,#71);
#77=LOCAL_TIME(10,23,36.,#72);
#78=LOCAL_TIME(10,23,36.,#73);
#79=LOCAL_TIME(10,23,36.,#74);
#80=CALENDAR_DATE(2018,1,12);
#81=CALENDAR_DATE(2018,1,12);
#82=CALENDAR_DATE(2018,1,12);
#83=CALENDAR_DATE(2018,1,12);
#84=CALENDAR_DATE(2018,1,12);
#85=DATE_AND_TIME(#80,#75);
#86=DATE_AND_TIME(#81,#76);
#87=DATE_AND_TIME(#82,#77);
#88=DATE_AND_TIME(#83,#78);
#89=DATE_AND_TIME(#84,#79);
#90=APPROVAL_STATUS('not_yet_approved');
#91=APPROVAL_STATUS('not_yet_approved');
#92=APPROVAL_STATUS('not_yet_approved');
#93=APPROVAL(#90,'defintion approval');
#94=APPROVAL(#91,'version approval');
#95=APPROVAL(#92,'security approval');
#96=PRODUCT_DEFINITION('DefinitionID','DefinitionDesc',#97,#19);
#97=PRODUCT_DEFINITION_FORMATION_WITH_SPECIFIED_SOURCE(
'PRODUCT_VERSION_ID','PRODUCT_VERSION_DESCR',#98,.NOT_KNOWN.);
#98=PRODUCT('ID_1','EM6027N','',(#10));
#99=(
LENGTH_UNIT()
NAMED_UNIT(*)
SI_UNIT(.MILLI.,.METRE.)
);
#100=(
NAMED_UNIT(*)
PLANE_ANGLE_UNIT()
SI_UNIT($,.RADIAN.)
);
#101=(
NAMED_UNIT(*)
SI_UNIT($,.STERADIAN.)
SOLID_ANGLE_UNIT()
);
#102=UNCERTAINTY_MEASURE_WITH_UNIT(LENGTH_MEASURE(1.E-6),#99,
'DISTANCE_ACCURACY_VALUE',
'Maximum model space distance between geometric entities at asserted c
onnectivities');
#103=(
GEOMETRIC_REPRESENTATION_CONTEXT(3)
GLOBAL_UNCERTAINTY_ASSIGNED_CONTEXT((#102))
GLOBAL_UNIT_ASSIGNED_CONTEXT((#101,#100,#99))
REPRESENTATION_CONTEXT('ID1','3D')
);
#104=SPHERICAL_SURFACE('',#347,0.5);
#105=SPHERICAL_SURFACE('',#348,0.5);
#106=SPHERICAL_SURFACE('',#354,0.5);
#107=SPHERICAL_SURFACE('',#355,0.5);
#108=CYLINDRICAL_SURFACE('',#334,3.);
#109=CYLINDRICAL_SURFACE('',#336,0.125);
#110=CYLINDRICAL_SURFACE('',#339,0.125);
#111=CYLINDRICAL_SURFACE('',#342,0.5);
#112=CYLINDRICAL_SURFACE('',#349,0.5);
#113=CYLINDRICAL_SURFACE('',#356,2.75);
#114=VECTOR('',#369,1.);
#115=VECTOR('',#372,1.);
#116=VECTOR('',#375,1.);
#117=VECTOR('',#378,1.);
#118=LINE('',#445,#114);
#119=LINE('',#449,#115);
#120=LINE('',#453,#116);
#121=LINE('',#457,#117);
#122=PLANE('',#325);
#123=PLANE('',#338);
#124=PLANE('',#341);
#125=PLANE('',#359);
#126=PLANE('',#360);
#127=VERTEX_POINT('',#438);
#128=VERTEX_POINT('',#440);
#129=VERTEX_POINT('',#443);
#130=VERTEX_POINT('',#444);
#131=VERTEX_POINT('',#446);
#132=VERTEX_POINT('',#448);
#133=VERTEX_POINT('',#451);
#134=VERTEX_POINT('',#452);
#135=VERTEX_POINT('',#454);
#136=VERTEX_POINT('',#456);
#137=VERTEX_POINT('',#459);
#138=VERTEX_POINT('',#461);
#139=VERTEX_POINT('',#464);
#140=VERTEX_POINT('',#467);
#141=VERTEX_POINT('',#470);
#142=VERTEX_POINT('',#474);
#143=VERTEX_POINT('',#478);
#144=VERTEX_POINT('',#481);
#145=VERTEX_POINT('',#487);
#146=VERTEX_POINT('',#490);
#147=VERTEX_POINT('',#496);
#148=VERTEX_POINT('',#498);
#149=CIRCLE('',#323,2.5);
#150=CIRCLE('',#324,2.25);
#151=CIRCLE('',#326,0.5);
#152=CIRCLE('',#327,0.5);
#153=CIRCLE('',#328,0.5);
#154=CIRCLE('',#329,0.5);
#155=CIRCLE('',#330,0.125);
#156=CIRCLE('',#331,0.125);
#157=CIRCLE('',#333,3.);
#158=CIRCLE('',#335,3.);
#159=CIRCLE('',#337,0.125);
#160=CIRCLE('',#340,0.125);
#161=CIRCLE('',#343,0.5);
#162=CIRCLE('',#344,0.5);
#163=CIRCLE('',#345,0.5);
#164=CIRCLE('',#346,0.5);
#165=CIRCLE('',#350,0.5);
#166=CIRCLE('',#351,0.5);
#167=CIRCLE('',#352,0.5);
#168=CIRCLE('',#353,0.5);
#169=CIRCLE('',#357,2.75);
#170=CIRCLE('',#358,2.75);
#171=EDGE_CURVE('',#127,#127,#149,.T.);
#172=EDGE_CURVE('',#128,#128,#150,.T.);
#173=EDGE_CURVE('',#129,#130,#151,.F.);
#174=EDGE_CURVE('',#129,#131,#118,.T.);
#175=EDGE_CURVE('',#132,#131,#152,.F.);
#176=EDGE_CURVE('',#132,#130,#119,.T.);
#177=EDGE_CURVE('',#133,#134,#153,.F.);
#178=EDGE_CURVE('',#133,#135,#120,.T.);
#179=EDGE_CURVE('',#136,#135,#154,.F.);
#180=EDGE_CURVE('',#136,#134,#121,.T.);
#181=EDGE_CURVE('',#137,#137,#155,.T.);
#182=EDGE_CURVE('',#138,#138,#156,.T.);
#183=EDGE_CURVE('',#139,#139,#157,.T.);
#184=EDGE_CURVE('',#140,#140,#158,.T.);
#185=EDGE_CURVE('',#141,#141,#159,.T.);
#186=EDGE_CURVE('',#142,#142,#160,.T.);
#187=EDGE_CURVE('',#133,#143,#161,.T.);
#188=EDGE_CURVE('',#143,#134,#162,.T.);
#189=EDGE_CURVE('',#136,#144,#163,.T.);
#190=EDGE_CURVE('',#144,#135,#164,.T.);
#191=EDGE_CURVE('',#129,#145,#165,.T.);
#192=EDGE_CURVE('',#145,#130,#166,.T.);
#193=EDGE_CURVE('',#132,#146,#167,.T.);
#194=EDGE_CURVE('',#146,#131,#168,.T.);
#195=EDGE_CURVE('',#147,#147,#169,.T.);
#196=EDGE_CURVE('',#148,#148,#170,.T.);
#197=ORIENTED_EDGE('',*,*,#171,.F.);
#198=ORIENTED_EDGE('',*,*,#172,.T.);
#199=ORIENTED_EDGE('',*,*,#173,.F.);
#200=ORIENTED_EDGE('',*,*,#174,.T.);
#201=ORIENTED_EDGE('',*,*,#175,.F.);
#202=ORIENTED_EDGE('',*,*,#176,.T.);
#203=ORIENTED_EDGE('',*,*,#177,.F.);
#204=ORIENTED_EDGE('',*,*,#178,.T.);
#205=ORIENTED_EDGE('',*,*,#179,.F.);
#206=ORIENTED_EDGE('',*,*,#180,.T.);
#207=ORIENTED_EDGE('',*,*,#181,.T.);
#208=ORIENTED_EDGE('',*,*,#182,.T.);
#209=ORIENTED_EDGE('',*,*,#172,.F.);
#210=ORIENTED_EDGE('',*,*,#171,.T.);
#211=ORIENTED_EDGE('',*,*,#183,.T.);
#212=ORIENTED_EDGE('',*,*,#184,.T.);
#213=ORIENTED_EDGE('',*,*,#183,.F.);
#214=ORIENTED_EDGE('',*,*,#185,.F.);
#215=ORIENTED_EDGE('',*,*,#182,.F.);
#216=ORIENTED_EDGE('',*,*,#185,.T.);
#217=ORIENTED_EDGE('',*,*,#186,.F.);
#218=ORIENTED_EDGE('',*,*,#181,.F.);
#219=ORIENTED_EDGE('',*,*,#186,.T.);
#220=ORIENTED_EDGE('',*,*,#187,.T.);
#221=ORIENTED_EDGE('',*,*,#188,.T.);
#222=ORIENTED_EDGE('',*,*,#180,.F.);
#223=ORIENTED_EDGE('',*,*,#189,.T.);
#224=ORIENTED_EDGE('',*,*,#190,.T.);
#225=ORIENTED_EDGE('',*,*,#178,.F.);
#226=ORIENTED_EDGE('',*,*,#189,.F.);
#227=ORIENTED_EDGE('',*,*,#179,.T.);
#228=ORIENTED_EDGE('',*,*,#190,.F.);
#229=ORIENTED_EDGE('',*,*,#187,.F.);
#230=ORIENTED_EDGE('',*,*,#177,.T.);
#231=ORIENTED_EDGE('',*,*,#188,.F.);
#232=ORIENTED_EDGE('',*,*,#191,.T.);
#233=ORIENTED_EDGE('',*,*,#192,.T.);
#234=ORIENTED_EDGE('',*,*,#176,.F.);
#235=ORIENTED_EDGE('',*,*,#193,.T.);
#236=ORIENTED_EDGE('',*,*,#194,.T.);
#237=ORIENTED_EDGE('',*,*,#174,.F.);
#238=ORIENTED_EDGE('',*,*,#193,.F.);
#239=ORIENTED_EDGE('',*,*,#175,.T.);
#240=ORIENTED_EDGE('',*,*,#194,.F.);
#241=ORIENTED_EDGE('',*,*,#191,.F.);
#242=ORIENTED_EDGE('',*,*,#173,.T.);
#243=ORIENTED_EDGE('',*,*,#192,.F.);
#244=ORIENTED_EDGE('',*,*,#195,.T.);
#245=ORIENTED_EDGE('',*,*,#196,.F.);
#246=ORIENTED_EDGE('',*,*,#195,.F.);
#247=ORIENTED_EDGE('',*,*,#196,.T.);
#248=ORIENTED_EDGE('',*,*,#184,.F.);
#249=EDGE_LOOP('',(#197));
#250=EDGE_LOOP('',(#198));
#251=EDGE_LOOP('',(#199,#200,#201,#202));
#252=EDGE_LOOP('',(#203,#204,#205,#206));
#253=EDGE_LOOP('',(#207));
#254=EDGE_LOOP('',(#208));
#255=EDGE_LOOP('',(#209));
#256=EDGE_LOOP('',(#210));
#257=EDGE_LOOP('',(#211));
#258=EDGE_LOOP('',(#212));
#259=EDGE_LOOP('',(#213));
#260=EDGE_LOOP('',(#214));
#261=EDGE_LOOP('',(#215));
#262=EDGE_LOOP('',(#216));
#263=EDGE_LOOP('',(#217));
#264=EDGE_LOOP('',(#218));
#265=EDGE_LOOP('',(#219));
#266=EDGE_LOOP('',(#220,#221,#222,#223,#224,#225));
#267=EDGE_LOOP('',(#226,#227,#228));
#268=EDGE_LOOP('',(#229,#230,#231));
#269=EDGE_LOOP('',(#232,#233,#234,#235,#236,#237));
#270=EDGE_LOOP('',(#238,#239,#240));
#271=EDGE_LOOP('',(#241,#242,#243));
#272=EDGE_LOOP('',(#244));
#273=EDGE_LOOP('',(#245));
#274=EDGE_LOOP('',(#246));
#275=EDGE_LOOP('',(#247));
#276=EDGE_LOOP('',(#248));
#277=FACE_BOUND('',#249,.T.);
#278=FACE_BOUND('',#250,.T.);
#279=FACE_BOUND('',#251,.T.);
#280=FACE_BOUND('',#252,.T.);
#281=FACE_BOUND('',#253,.T.);
#282=FACE_BOUND('',#254,.T.);
#283=FACE_BOUND('',#255,.T.);
#284=FACE_BOUND('',#256,.T.);
#285=FACE_BOUND('',#257,.T.);
#286=FACE_BOUND('',#258,.T.);
#287=FACE_BOUND('',#259,.T.);
#288=FACE_BOUND('',#260,.T.);
#289=FACE_BOUND('',#261,.T.);
#290=FACE_BOUND('',#262,.T.);
#291=FACE_BOUND('',#263,.T.);
#292=FACE_BOUND('',#264,.T.);
#293=FACE_BOUND('',#265,.T.);
#294=FACE_BOUND('',#266,.T.);
#295=FACE_BOUND('',#267,.T.);
#296=FACE_BOUND('',#268,.T.);
#297=FACE_BOUND('',#269,.T.);
#298=FACE_BOUND('',#270,.T.);
#299=FACE_BOUND('',#271,.T.);
#300=FACE_BOUND('',#272,.T.);
#301=FACE_BOUND('',#273,.T.);
#302=FACE_BOUND('',#274,.T.);
#303=FACE_BOUND('',#275,.T.);
#304=FACE_BOUND('',#276,.T.);
#305=ADVANCED_FACE('',(#277,#278),#501,.F.);
#306=ADVANCED_FACE('',(#279,#280,#281,#282,#283),#122,.T.);
#307=ADVANCED_FACE('',(#284,#285),#502,.T.);
#308=ADVANCED_FACE('',(#286,#287),#108,.T.);
#309=ADVANCED_FACE('',(#288,#289),#109,.F.);
#310=ADVANCED_FACE('',(#290),#123,.F.);
#311=ADVANCED_FACE('',(#291,#292),#110,.F.);
#312=ADVANCED_FACE('',(#293),#124,.T.);
#313=ADVANCED_FACE('',(#294),#111,.T.);
#314=ADVANCED_FACE('',(#295),#104,.T.);
#315=ADVANCED_FACE('',(#296),#105,.T.);
#316=ADVANCED_FACE('',(#297),#112,.T.);
#317=ADVANCED_FACE('',(#298),#106,.T.);
#318=ADVANCED_FACE('',(#299),#107,.T.);
#319=ADVANCED_FACE('',(#300,#301),#113,.T.);
#320=ADVANCED_FACE('',(#302),#125,.T.);
#321=ADVANCED_FACE('',(#303,#304),#126,.T.);
#322=AXIS2_PLACEMENT_3D('',#436,#361,$);
#323=AXIS2_PLACEMENT_3D('',#437,#362,#363);
#324=AXIS2_PLACEMENT_3D('',#439,#364,#365);
#325=AXIS2_PLACEMENT_3D('',#441,#366,$);
#326=AXIS2_PLACEMENT_3D('',#442,#367,#368);
#327=AXIS2_PLACEMENT_3D('',#447,#370,#371);
#328=AXIS2_PLACEMENT_3D('',#450,#373,#374);
#329=AXIS2_PLACEMENT_3D('',#455,#376,#377);
#330=AXIS2_PLACEMENT_3D('',#458,#379,#380);
#331=AXIS2_PLACEMENT_3D('',#460,#381,#382);
#332=AXIS2_PLACEMENT_3D('',#462,#383,$);
#333=AXIS2_PLACEMENT_3D('',#463,#384,#385);
#334=AXIS2_PLACEMENT_3D('',#465,#386,#387);
#335=AXIS2_PLACEMENT_3D('',#466,#388,#389);
#336=AXIS2_PLACEMENT_3D('',#468,#390,#391);
#337=AXIS2_PLACEMENT_3D('',#469,#392,#393);
#338=AXIS2_PLACEMENT_3D('',#471,#394,$);
#339=AXIS2_PLACEMENT_3D('',#472,#395,#396);
#340=AXIS2_PLACEMENT_3D('',#473,#397,#398);
#341=AXIS2_PLACEMENT_3D('',#475,#399,$);
#342=AXIS2_PLACEMENT_3D('',#476,#400,#401);
#343=AXIS2_PLACEMENT_3D('',#477,#402,#403);
#344=AXIS2_PLACEMENT_3D('',#479,#404,#405);
#345=AXIS2_PLACEMENT_3D('',#480,#406,#407);
#346=AXIS2_PLACEMENT_3D('',#482,#408,#409);
#347=AXIS2_PLACEMENT_3D('',#483,#410,#411);
#348=AXIS2_PLACEMENT_3D('',#484,#412,#413);
#349=AXIS2_PLACEMENT_3D('',#485,#414,#415);
#350=AXIS2_PLACEMENT_3D('',#486,#416,#417);
#351=AXIS2_PLACEMENT_3D('',#488,#418,#419);
#352=AXIS2_PLACEMENT_3D('',#489,#420,#421);
#353=AXIS2_PLACEMENT_3D('',#491,#422,#423);
#354=AXIS2_PLACEMENT_3D('',#492,#424,#425);
#355=AXIS2_PLACEMENT_3D('',#493,#426,#427);
#356=AXIS2_PLACEMENT_3D('',#494,#428,#429);
#357=AXIS2_PLACEMENT_3D('',#495,#430,#431);
#358=AXIS2_PLACEMENT_3D('',#497,#432,#433);
#359=AXIS2_PLACEMENT_3D('',#499,#434,$);
#360=AXIS2_PLACEMENT_3D('',#500,#435,$);
#361=DIRECTION('',(0.,0.,-1.));
#362=DIRECTION('',(0.,0.,1.));
#363=DIRECTION('',(2.5,-3.06161699786838E-16,0.));
#364=DIRECTION('',(0.,0.,1.));
#365=DIRECTION('',(2.25,2.75545529808154E-16,0.));
#366=DIRECTION('',(0.,0.,-1.));
#367=DIRECTION('',(0.,0.,1.));
#368=DIRECTION('',(-0.353553390593274,0.353553390593274,0.));
#369=DIRECTION('',(-1.21430643318376E-16,-1.,0.));
#370=DIRECTION('',(0.,0.,1.));
#371=DIRECTION('',(-0.353553390593274,-0.353553390593274,0.));
#372=DIRECTION('',(0.,1.,0.));
#373=DIRECTION('',(0.,0.,1.));
#374=DIRECTION('',(0.353553390593274,-0.353553390593274,0.));
#375=DIRECTION('',(-1.21430643318376E-16,1.,0.));
#376=DIRECTION('',(0.,0.,1.));
#377=DIRECTION('',(0.353553390593274,0.353553390593274,0.));
#378=DIRECTION('',(0.,-1.,0.));
#379=DIRECTION('',(0.,0.,1.));
#380=DIRECTION('',(-0.125,0.,0.));
#381=DIRECTION('',(0.,0.,1.));
#382=DIRECTION('',(-0.125,0.,0.));
#383=DIRECTION('',(0.,0.,1.));
#384=DIRECTION('',(0.,0.,-1.));
#385=DIRECTION('',(-3.,3.67394039744206E-16,0.));
#386=DIRECTION('',(0.,0.,1.));
#387=DIRECTION('',(3.,0.,0.));
#388=DIRECTION('',(0.,0.,-1.));
#389=DIRECTION('',(3.,0.,0.));
#390=DIRECTION('',(0.,0.,1.));
#391=DIRECTION('',(-0.125,0.,0.));
#392=DIRECTION('',(0.,0.,-1.));
#393=DIRECTION('',(-0.125,0.,0.));
#394=DIRECTION('',(0.,0.,1.));
#395=DIRECTION('',(0.,0.,1.));
#396=DIRECTION('',(-0.125,0.,0.));
#397=DIRECTION('',(0.,0.,-1.));
#398=DIRECTION('',(-0.125,0.,0.));
#399=DIRECTION('',(0.,0.,-1.));
#400=DIRECTION('',(-1.21430643318376E-16,1.,5.74904461011113E-33));
#401=DIRECTION('',(0.353553390593274,4.29322156671345E-17,-0.353553390593274));
#402=DIRECTION('',(-1.21430643318376E-16,1.,5.74904461011113E-33));
#403=DIRECTION('',(0.5,6.93889390390723E-17,0.));
#404=DIRECTION('',(0.,1.,5.74904461011116E-33));
#405=DIRECTION('',(0.,0.,-0.5));
#406=DIRECTION('',(0.,-1.,-5.74904461011116E-33));
#407=DIRECTION('',(-0.5,0.,0.));
#408=DIRECTION('',(1.21430643318376E-16,-1.,-5.74904461011113E-33));
#409=DIRECTION('',(0.,0.,-0.5));
#410=DIRECTION('',(0.,0.,1.));
#411=DIRECTION('',(0.707106781186547,0.707106781186547,0.));
#412=DIRECTION('',(0.,0.,1.));
#413=DIRECTION('',(0.707106781186548,-0.707106781186547,0.));
#414=DIRECTION('',(-1.21430643318376E-16,-1.,-5.74904461011113E-33));
#415=DIRECTION('',(-0.353553390593274,4.29322156671345E-17,-0.353553390593274));
#416=DIRECTION('',(-1.21430643318376E-16,-1.,-5.74904461011113E-33));
#417=DIRECTION('',(-0.5,6.93889390390723E-17,0.));
#418=DIRECTION('',(0.,-1.,-5.74904461011116E-33));
#419=DIRECTION('',(0.,0.,-0.5));
#420=DIRECTION('',(0.,1.,5.74904461011116E-33));
#421=DIRECTION('',(0.5,0.,0.));
#422=DIRECTION('',(1.21430643318376E-16,1.,5.74904461011113E-33));
#423=DIRECTION('',(0.,0.,-0.5));
#424=DIRECTION('',(0.,0.,1.));
#425=DIRECTION('',(-0.707106781186548,-0.707106781186547,0.));
#426=DIRECTION('',(0.,0.,1.));
#427=DIRECTION('',(-0.707106781186547,0.707106781186547,0.));
#428=DIRECTION('',(0.,0.,1.));
#429=DIRECTION('',(2.75,0.,0.));
#430=DIRECTION('',(0.,0.,-1.));
#431=DIRECTION('',(2.75,0.,0.));
#432=DIRECTION('',(0.,0.,-1.));
#433=DIRECTION('',(2.75,0.,0.));
#434=DIRECTION('',(0.,0.,1.));
#435=DIRECTION('',(0.,0.,1.));
#436=CARTESIAN_POINT('',(0.,0.,0.25));
#437=CARTESIAN_POINT('',(0.,0.,0.25));
#438=CARTESIAN_POINT('',(-2.5,0.,0.25));
#439=CARTESIAN_POINT('',(0.,0.,0.5));
#440=CARTESIAN_POINT('',(-2.25,-5.51091059616309E-16,0.5));
#441=CARTESIAN_POINT('',(0.,0.,0.5));
#442=CARTESIAN_POINT('',(0.75,0.5,0.5));
#443=CARTESIAN_POINT('',(0.25,0.5,0.5));
#444=CARTESIAN_POINT('',(1.25,0.5,0.5));
#445=CARTESIAN_POINT('',(0.25,-1.51788304147971E-17,0.5));
#446=CARTESIAN_POINT('',(0.25,-0.5,0.5));
#447=CARTESIAN_POINT('',(0.75,-0.5,0.5));
#448=CARTESIAN_POINT('',(1.25,-0.5,0.5));
#449=CARTESIAN_POINT('',(1.25,0.,0.5));
#450=CARTESIAN_POINT('',(-0.75,-0.5,0.5));
#451=CARTESIAN_POINT('',(-0.25,-0.5,0.5));
#452=CARTESIAN_POINT('',(-1.25,-0.5,0.5));
#453=CARTESIAN_POINT('',(-0.25,0.,0.5));
#454=CARTESIAN_POINT('',(-0.25,0.5,0.5));
#455=CARTESIAN_POINT('',(-0.75,0.5,0.5));
#456=CARTESIAN_POINT('',(-1.25,0.5,0.5));
#457=CARTESIAN_POINT('',(-1.25,0.,0.5));
#458=CARTESIAN_POINT('',(0.,1.75,0.5));
#459=CARTESIAN_POINT('',(-0.125,1.75,0.5));
#460=CARTESIAN_POINT('',(0.,-1.75,0.5));
#461=CARTESIAN_POINT('',(-0.125,-1.75,0.5));
#462=CARTESIAN_POINT('',(0.,0.,0.25));
#463=CARTESIAN_POINT('',(0.,0.,0.25));
#464=CARTESIAN_POINT('',(3.,-7.34788079488412E-16,0.25));
#465=CARTESIAN_POINT('',(0.,0.,0.));
#466=CARTESIAN_POINT('',(0.,0.,2.7));
#467=CARTESIAN_POINT('',(3.,0.,2.7));
#468=CARTESIAN_POINT('',(0.,-1.75,0.5));
#469=CARTESIAN_POINT('',(0.,-1.75,1.));
#470=CARTESIAN_POINT('',(-0.125,-1.75,1.));
#471=CARTESIAN_POINT('',(0.,-1.75,1.));
#472=CARTESIAN_POINT('',(0.,1.75,0.5));
#473=CARTESIAN_POINT('',(0.,1.75,1.));
#474=CARTESIAN_POINT('',(-0.125,1.75,1.));
#475=CARTESIAN_POINT('',(0.,1.75,1.));
#476=CARTESIAN_POINT('',(-0.75,-6.50521303491303E-17,0.5));
#477=CARTESIAN_POINT('',(-0.75,-0.5,0.5));
#478=CARTESIAN_POINT('',(-0.75,-0.5,-2.87452230505557E-33));
#479=CARTESIAN_POINT('',(-0.75,-0.5,0.5));
#480=CARTESIAN_POINT('',(-0.75,0.5,0.5));
#481=CARTESIAN_POINT('',(-0.75,0.5,2.87452230505557E-33));
#482=CARTESIAN_POINT('',(-0.75,0.5,0.5));
#483=CARTESIAN_POINT('',(-0.75,0.5,0.5));
#484=CARTESIAN_POINT('',(-0.75,-0.5,0.5));
#485=CARTESIAN_POINT('',(0.75,-6.50521303491303E-17,0.5));
#486=CARTESIAN_POINT('',(0.75,0.5,0.5));
#487=CARTESIAN_POINT('',(0.75,0.5,2.87452230505557E-33));
#488=CARTESIAN_POINT('',(0.75,0.5,0.5));
#489=CARTESIAN_POINT('',(0.75,-0.5,0.5));
#490=CARTESIAN_POINT('',(0.75,-0.5,-2.87452230505557E-33));
#491=CARTESIAN_POINT('',(0.75,-0.5,0.5));
#492=CARTESIAN_POINT('',(0.75,-0.5,0.5));
#493=CARTESIAN_POINT('',(0.75,0.5,0.5));
#494=CARTESIAN_POINT('',(0.,0.,2.7));
#495=CARTESIAN_POINT('',(0.,0.,2.9));
#496=CARTESIAN_POINT('',(2.75,0.,2.9));
#497=CARTESIAN_POINT('',(0.,0.,2.7));
#498=CARTESIAN_POINT('',(2.75,0.,2.7));
#499=CARTESIAN_POINT('',(0.,0.,2.9));
#500=CARTESIAN_POINT('',(0.,0.,2.7));
#501=TOROIDAL_SURFACE('',#322,2.25,0.25);
#502=TOROIDAL_SURFACE('',#332,2.75,0.25);
#503=CLOSED_SHELL('',(#305,#306,#307,#308,#309,#310,#311,#312,#313,#314,
#315,#316,#317,#318,#319,#320,#321));
#504=MANIFOLD_SOLID_BREP('',#503);
#505=ADVANCED_BREP_SHAPE_REPRESENTATION('',(#504),#103);
ENDSEC;
END-ISO-10303-21;
