ISO-10303-21;
HEADER;
/* Generated by software containing ST-Developer
 * from STEP Tools, Inc. (www.steptools.com) 
 */

FILE_DESCRIPTION(
/* description */ ('Alibre Inc.'),
/* implementation_level */ '2;1');

FILE_NAME(
/* name */ 'export0',
/* time_stamp */ '2018-10-08T19:56:44-05:00',
/* author */ (''),
/* organization */ (''),
/* preprocessor_version */ 'ST-DEVELOPER v17',
/* originating_system */ 'Alibre',
/* authorisation */ '');

FILE_SCHEMA (('CONFIG_CONTROL_DESIGN'));
ENDSEC;

DATA;
#10=MECHANICAL_CONTEXT('detailed design',#18,'mechanical');
#11=PRODUCT_RELATED_PRODUCT_CATEGORY('detail','',(#98));
#12=CC_DESIGN_SECURITY_CLASSIFICATION(#14,(#97));
#13=SECURITY_CLASSIFICATION_LEVEL('unclassified');
#14=SECURITY_CLASSIFICATION('name','Security for version',#13);
#15=SHAPE_DEFINITION_REPRESENTATION(#16,#646);
#16=PRODUCT_DEFINITION_SHAPE('','DefinitionDesc',#96);
#17=APPLICATION_PROTOCOL_DEFINITION('AP definition status',
'config_control_design',1994,#18);
#18=APPLICATION_CONTEXT(
'control the configuration of three dimensional design');
#19=DESIGN_CONTEXT('detailed design',#18,'design');
#20=PERSON_AND_ORGANIZATION_ROLE('creator');
#21=PERSON_AND_ORGANIZATION_ROLE('classification_officer');
#22=PERSON_AND_ORGANIZATION_ROLE('creator');
#23=PERSON_AND_ORGANIZATION_ROLE('design_supplier');
#24=PERSON_AND_ORGANIZATION_ROLE('design_owner');
#25=CC_DESIGN_PERSON_AND_ORGANIZATION_ASSIGNMENT(#57,#20,(#96));
#26=CC_DESIGN_PERSON_AND_ORGANIZATION_ASSIGNMENT(#60,#21,(#14));
#27=CC_DESIGN_PERSON_AND_ORGANIZATION_ASSIGNMENT(#61,#22,(#97));
#28=CC_DESIGN_PERSON_AND_ORGANIZATION_ASSIGNMENT(#62,#23,(#97));
#29=CC_DESIGN_PERSON_AND_ORGANIZATION_ASSIGNMENT(#63,#24,(#98));
#30=DATE_TIME_ROLE('creation_date');
#31=DATE_TIME_ROLE('classification_date');
#32=CC_DESIGN_DATE_AND_TIME_ASSIGNMENT(#86,#30,(#96));
#33=CC_DESIGN_DATE_AND_TIME_ASSIGNMENT(#89,#31,(#14));
#34=CC_DESIGN_APPROVAL(#93,(#96));
#35=CC_DESIGN_APPROVAL(#94,(#97));
#36=CC_DESIGN_APPROVAL(#95,(#14));
#37=APPROVAL_PERSON_ORGANIZATION(#56,#93,#64);
#38=APPROVAL_PERSON_ORGANIZATION(#58,#94,#65);
#39=APPROVAL_PERSON_ORGANIZATION(#59,#95,#66);
#40=ORGANIZATION('DEFINITION_APPROVEDBY_ORG_ID',
'DEFINITION_APPROVEDBY_ORG_NAME','DEFINITION_APPROVEDBY_ORG_DESCR');
#41=ORGANIZATION('DEF_CREATOR_ORG_ID','DEF_CREATOR_ORG_NAME',
'DEF_CREATOR_ORG_DESCR');
#42=ORGANIZATION('APPROVEDBY_ORG_ID','APPROVEDBY_ORG_NAME',
'APPROVEDBY_ORG_DESCR');
#43=ORGANIZATION('SECURITY_APPROVEDBY_ORG_ID',
'SECURITY_APPROVEDBY_ORG_NAME','SECURITY_APPROVEDBY_ORG_DESCR');
#44=ORGANIZATION('CLASSOFFICER_ORG_ID','CLASSOFFICER_ORG_NAME',
'CLASSOFFICER_ORG_DESCR');
#45=ORGANIZATION('CREATOR_ORG_ID','CREATOR_ORG_NAME',
'CREATOR_ORG_DESCR');
#46=ORGANIZATION('SUPPLIER_ORG_ID','SUPPLIER_ORG_NAME',
'SUPPLIER_ORG_DESCR');
#47=ORGANIZATION('OWNER_ORG_ID','OWNER_ORG_NAME','OWNER_ORG_DESCR');
#48=PERSON('DEFINITION_approverID','DEFINITION_APPROVEDBY_LASTNAME',
'DEFINITION_APPROVEDBY_FIRSTNAME',$,$,$);
#49=PERSON('DEF_createrID','DEF_CREATOR_LASTNAME',
'DEF_CREATOR_FIRSTNAME',$,$,$);
#50=PERSON('approverID','APPROVEDBY_LASTNAME','APPROVEDBY_FIRSTNAME',$,
$,$);
#51=PERSON('SECURITY_approverID','SECURITY_LASTNAME',
'SECURITY_APPROVEDBY_FIRSTNAME',$,$,$);
#52=PERSON('classifierID','CLASSOFFICER_LASTNAME',
'CLASSOFFICER_FIRSTNAME',$,$,$);
#53=PERSON('createrID','CREATOR_LASTNAME','CREATOR_FIRSTNAME',$,$,$);
#54=PERSON('supplierID','SUPPLIER_LASTNAME','SUPPLIER_FIRSTNAME',$,$,$);
#55=PERSON('ownerID','OWNER_LASTNAME','OWNER_FIRSTNAME',$,$,$);
#56=PERSON_AND_ORGANIZATION(#48,#40);
#57=PERSON_AND_ORGANIZATION(#49,#41);
#58=PERSON_AND_ORGANIZATION(#50,#42);
#59=PERSON_AND_ORGANIZATION(#51,#43);
#60=PERSON_AND_ORGANIZATION(#52,#44);
#61=PERSON_AND_ORGANIZATION(#53,#45);
#62=PERSON_AND_ORGANIZATION(#54,#46);
#63=PERSON_AND_ORGANIZATION(#55,#47);
#64=APPROVAL_ROLE('definition_approval');
#65=APPROVAL_ROLE('version_approval');
#66=APPROVAL_ROLE('security_approval');
#67=APPROVAL_DATE_TIME(#85,#93);
#68=APPROVAL_DATE_TIME(#87,#94);
#69=APPROVAL_DATE_TIME(#88,#95);
#70=COORDINATED_UNIVERSAL_TIME_OFFSET(5,0,.BEHIND.);
#71=COORDINATED_UNIVERSAL_TIME_OFFSET(5,0,.BEHIND.);
#72=COORDINATED_UNIVERSAL_TIME_OFFSET(5,0,.BEHIND.);
#73=COORDINATED_UNIVERSAL_TIME_OFFSET(5,0,.BEHIND.);
#74=COORDINATED_UNIVERSAL_TIME_OFFSET(5,0,.BEHIND.);
#75=LOCAL_TIME(19,48,45.,#70);
#76=LOCAL_TIME(19,48,45.,#71);
#77=LOCAL_TIME(19,48,45.,#72);
#78=LOCAL_TIME(19,48,45.,#73);
#79=LOCAL_TIME(19,48,45.,#74);
#80=CALENDAR_DATE(2018,8,10);
#81=CALENDAR_DATE(2018,8,10);
#82=CALENDAR_DATE(2018,8,10);
#83=CALENDAR_DATE(2018,8,10);
#84=CALENDAR_DATE(2018,8,10);
#85=DATE_AND_TIME(#80,#75);
#86=DATE_AND_TIME(#81,#76);
#87=DATE_AND_TIME(#82,#77);
#88=DATE_AND_TIME(#83,#78);
#89=DATE_AND_TIME(#84,#79);
#90=APPROVAL_STATUS('not_yet_approved');
#91=APPROVAL_STATUS('not_yet_approved');
#92=APPROVAL_STATUS('not_yet_approved');
#93=APPROVAL(#90,'defintion approval');
#94=APPROVAL(#91,'version approval');
#95=APPROVAL(#92,'security approval');
#96=PRODUCT_DEFINITION('DefinitionID','DefinitionDesc',#97,#19);
#97=PRODUCT_DEFINITION_FORMATION_WITH_SPECIFIED_SOURCE(
'PRODUCT_VERSION_ID','PRODUCT_VERSION_DESCR',#98,.NOT_KNOWN.);
#98=PRODUCT('ID_1','WT-1212','',(#10));
#99=(
LENGTH_UNIT()
NAMED_UNIT(*)
SI_UNIT(.MILLI.,.METRE.)
);
#100=(
NAMED_UNIT(*)
PLANE_ANGLE_UNIT()
SI_UNIT($,.RADIAN.)
);
#101=(
NAMED_UNIT(*)
SI_UNIT($,.STERADIAN.)
SOLID_ANGLE_UNIT()
);
#102=UNCERTAINTY_MEASURE_WITH_UNIT(LENGTH_MEASURE(1.E-6),#99,
'DISTANCE_ACCURACY_VALUE',
'Maximum model space distance between geometric entities at asserted c
onnectivities');
#103=(
GEOMETRIC_REPRESENTATION_CONTEXT(3)
GLOBAL_UNCERTAINTY_ASSIGNED_CONTEXT((#102))
GLOBAL_UNIT_ASSIGNED_CONTEXT((#101,#100,#99))
REPRESENTATION_CONTEXT('ID1','3D')
);
#104=VECTOR('',#480,1.);
#105=VECTOR('',#481,1.);
#106=VECTOR('',#482,1.);
#107=VECTOR('',#483,1.);
#108=VECTOR('',#488,1.);
#109=VECTOR('',#492,1.);
#110=VECTOR('',#493,1.);
#111=VECTOR('',#494,1.);
#112=VECTOR('',#499,1.);
#113=VECTOR('',#500,1.);
#114=VECTOR('',#501,1.);
#115=VECTOR('',#502,1.);
#116=VECTOR('',#507,1.);
#117=VECTOR('',#511,1.);
#118=VECTOR('',#512,1.);
#119=VECTOR('',#513,1.);
#120=VECTOR('',#518,1.);
#121=VECTOR('',#519,1.);
#122=VECTOR('',#520,1.);
#123=VECTOR('',#521,1.);
#124=VECTOR('',#526,1.);
#125=VECTOR('',#530,1.);
#126=VECTOR('',#531,1.);
#127=VECTOR('',#532,1.);
#128=LINE('',#563,#104);
#129=LINE('',#566,#105);
#130=LINE('',#568,#106);
#131=LINE('',#570,#107);
#132=LINE('',#574,#108);
#133=LINE('',#578,#109);
#134=LINE('',#580,#110);
#135=LINE('',#582,#111);
#136=LINE('',#586,#112);
#137=LINE('',#589,#113);
#138=LINE('',#591,#114);
#139=LINE('',#593,#115);
#140=LINE('',#597,#116);
#141=LINE('',#601,#117);
#142=LINE('',#603,#118);
#143=LINE('',#605,#119);
#144=LINE('',#609,#120);
#145=LINE('',#612,#121);
#146=LINE('',#614,#122);
#147=LINE('',#616,#123);
#148=LINE('',#620,#124);
#149=LINE('',#624,#125);
#150=LINE('',#626,#126);
#151=LINE('',#628,#127);
#152=PLANE('',#423);
#153=PLANE('',#427);
#154=PLANE('',#431);
#155=PLANE('',#432);
#156=PLANE('',#436);
#157=PLANE('',#437);
#158=PLANE('',#439);
#159=PLANE('',#443);
#160=PLANE('',#444);
#161=PLANE('',#446);
#162=PLANE('',#450);
#163=PLANE('',#451);
#164=PLANE('',#456);
#165=PLANE('',#457);
#166=VERTEX_POINT('',#546);
#167=VERTEX_POINT('',#548);
#168=VERTEX_POINT('',#552);
#169=VERTEX_POINT('',#554);
#170=VERTEX_POINT('',#558);
#171=VERTEX_POINT('',#560);
#172=VERTEX_POINT('',#564);
#173=VERTEX_POINT('',#565);
#174=VERTEX_POINT('',#567);
#175=VERTEX_POINT('',#569);
#176=VERTEX_POINT('',#573);
#177=VERTEX_POINT('',#575);
#178=VERTEX_POINT('',#579);
#179=VERTEX_POINT('',#581);
#180=VERTEX_POINT('',#587);
#181=VERTEX_POINT('',#588);
#182=VERTEX_POINT('',#590);
#183=VERTEX_POINT('',#592);
#184=VERTEX_POINT('',#596);
#185=VERTEX_POINT('',#598);
#186=VERTEX_POINT('',#602);
#187=VERTEX_POINT('',#604);
#188=VERTEX_POINT('',#610);
#189=VERTEX_POINT('',#611);
#190=VERTEX_POINT('',#613);
#191=VERTEX_POINT('',#615);
#192=VERTEX_POINT('',#619);
#193=VERTEX_POINT('',#621);
#194=VERTEX_POINT('',#625);
#195=VERTEX_POINT('',#627);
#196=VERTEX_POINT('',#634);
#197=CIRCLE('',#421,0.3);
#198=CIRCLE('',#422,0.3);
#199=CIRCLE('',#425,0.3);
#200=CIRCLE('',#426,0.3);
#201=CIRCLE('',#429,1.125);
#202=CIRCLE('',#430,1.125);
#203=CIRCLE('',#434,5.5);
#204=CIRCLE('',#435,5.5);
#205=CIRCLE('',#438,6.);
#206=CIRCLE('',#441,5.5);
#207=CIRCLE('',#442,5.5);
#208=CIRCLE('',#445,6.);
#209=CIRCLE('',#448,5.5);
#210=CIRCLE('',#449,5.5);
#211=CIRCLE('',#452,6.);
#212=CIRCLE('',#454,6.);
#213=CIRCLE('',#455,6.);
#214=EDGE_CURVE('',#166,#166,#197,.T.);
#215=EDGE_CURVE('',#167,#167,#198,.T.);
#216=EDGE_CURVE('',#168,#168,#199,.T.);
#217=EDGE_CURVE('',#169,#169,#200,.T.);
#218=EDGE_CURVE('',#170,#170,#201,.T.);
#219=EDGE_CURVE('',#171,#171,#202,.T.);
#220=EDGE_CURVE('',#172,#173,#128,.T.);
#221=EDGE_CURVE('',#174,#173,#129,.T.);
#222=EDGE_CURVE('',#175,#174,#130,.T.);
#223=EDGE_CURVE('',#175,#172,#131,.T.);
#224=EDGE_CURVE('',#173,#176,#203,.T.);
#225=EDGE_CURVE('',#177,#176,#132,.T.);
#226=EDGE_CURVE('',#174,#177,#204,.T.);
#227=EDGE_CURVE('',#176,#178,#133,.T.);
#228=EDGE_CURVE('',#179,#178,#134,.T.);
#229=EDGE_CURVE('',#177,#179,#135,.T.);
#230=EDGE_CURVE('',#178,#172,#205,.T.);
#231=EDGE_CURVE('',#180,#181,#136,.T.);
#232=EDGE_CURVE('',#182,#181,#137,.T.);
#233=EDGE_CURVE('',#183,#182,#138,.T.);
#234=EDGE_CURVE('',#183,#180,#139,.T.);
#235=EDGE_CURVE('',#181,#184,#206,.T.);
#236=EDGE_CURVE('',#185,#184,#140,.T.);
#237=EDGE_CURVE('',#182,#185,#207,.T.);
#238=EDGE_CURVE('',#184,#186,#141,.T.);
#239=EDGE_CURVE('',#187,#186,#142,.T.);
#240=EDGE_CURVE('',#185,#187,#143,.T.);
#241=EDGE_CURVE('',#186,#180,#208,.T.);
#242=EDGE_CURVE('',#188,#189,#144,.T.);
#243=EDGE_CURVE('',#190,#189,#145,.T.);
#244=EDGE_CURVE('',#191,#190,#146,.T.);
#245=EDGE_CURVE('',#191,#188,#147,.T.);
#246=EDGE_CURVE('',#189,#192,#209,.T.);
#247=EDGE_CURVE('',#193,#192,#148,.T.);
#248=EDGE_CURVE('',#190,#193,#210,.T.);
#249=EDGE_CURVE('',#192,#194,#149,.T.);
#250=EDGE_CURVE('',#195,#194,#150,.T.);
#251=EDGE_CURVE('',#193,#195,#151,.T.);
#252=EDGE_CURVE('',#194,#188,#211,.T.);
#253=EDGE_CURVE('',#191,#179,#212,.T.);
#254=EDGE_CURVE('',#175,#187,#212,.T.);
#255=EDGE_CURVE('',#183,#195,#212,.T.);
#256=EDGE_CURVE('',#196,#196,#213,.T.);
#257=ORIENTED_EDGE('',*,*,#214,.T.);
#258=ORIENTED_EDGE('',*,*,#215,.F.);
#259=ORIENTED_EDGE('',*,*,#214,.F.);
#260=ORIENTED_EDGE('',*,*,#216,.T.);
#261=ORIENTED_EDGE('',*,*,#217,.F.);
#262=ORIENTED_EDGE('',*,*,#216,.F.);
#263=ORIENTED_EDGE('',*,*,#218,.F.);
#264=ORIENTED_EDGE('',*,*,#219,.F.);
#265=ORIENTED_EDGE('',*,*,#218,.T.);
#266=ORIENTED_EDGE('',*,*,#220,.T.);
#267=ORIENTED_EDGE('',*,*,#221,.F.);
#268=ORIENTED_EDGE('',*,*,#222,.F.);
#269=ORIENTED_EDGE('',*,*,#223,.T.);
#270=ORIENTED_EDGE('',*,*,#224,.T.);
#271=ORIENTED_EDGE('',*,*,#225,.F.);
#272=ORIENTED_EDGE('',*,*,#226,.F.);
#273=ORIENTED_EDGE('',*,*,#221,.T.);
#274=ORIENTED_EDGE('',*,*,#227,.T.);
#275=ORIENTED_EDGE('',*,*,#228,.F.);
#276=ORIENTED_EDGE('',*,*,#229,.F.);
#277=ORIENTED_EDGE('',*,*,#225,.T.);
#278=ORIENTED_EDGE('',*,*,#220,.F.);
#279=ORIENTED_EDGE('',*,*,#230,.F.);
#280=ORIENTED_EDGE('',*,*,#227,.F.);
#281=ORIENTED_EDGE('',*,*,#224,.F.);
#282=ORIENTED_EDGE('',*,*,#231,.T.);
#283=ORIENTED_EDGE('',*,*,#232,.F.);
#284=ORIENTED_EDGE('',*,*,#233,.F.);
#285=ORIENTED_EDGE('',*,*,#234,.T.);
#286=ORIENTED_EDGE('',*,*,#235,.T.);
#287=ORIENTED_EDGE('',*,*,#236,.F.);
#288=ORIENTED_EDGE('',*,*,#237,.F.);
#289=ORIENTED_EDGE('',*,*,#232,.T.);
#290=ORIENTED_EDGE('',*,*,#238,.T.);
#291=ORIENTED_EDGE('',*,*,#239,.F.);
#292=ORIENTED_EDGE('',*,*,#240,.F.);
#293=ORIENTED_EDGE('',*,*,#236,.T.);
#294=ORIENTED_EDGE('',*,*,#231,.F.);
#295=ORIENTED_EDGE('',*,*,#241,.F.);
#296=ORIENTED_EDGE('',*,*,#238,.F.);
#297=ORIENTED_EDGE('',*,*,#235,.F.);
#298=ORIENTED_EDGE('',*,*,#242,.T.);
#299=ORIENTED_EDGE('',*,*,#243,.F.);
#300=ORIENTED_EDGE('',*,*,#244,.F.);
#301=ORIENTED_EDGE('',*,*,#245,.T.);
#302=ORIENTED_EDGE('',*,*,#246,.T.);
#303=ORIENTED_EDGE('',*,*,#247,.F.);
#304=ORIENTED_EDGE('',*,*,#248,.F.);
#305=ORIENTED_EDGE('',*,*,#243,.T.);
#306=ORIENTED_EDGE('',*,*,#249,.T.);
#307=ORIENTED_EDGE('',*,*,#250,.F.);
#308=ORIENTED_EDGE('',*,*,#251,.F.);
#309=ORIENTED_EDGE('',*,*,#247,.T.);
#310=ORIENTED_EDGE('',*,*,#242,.F.);
#311=ORIENTED_EDGE('',*,*,#252,.F.);
#312=ORIENTED_EDGE('',*,*,#249,.F.);
#313=ORIENTED_EDGE('',*,*,#246,.F.);
#314=ORIENTED_EDGE('',*,*,#253,.T.);
#315=ORIENTED_EDGE('',*,*,#228,.T.);
#316=ORIENTED_EDGE('',*,*,#230,.T.);
#317=ORIENTED_EDGE('',*,*,#223,.F.);
#318=ORIENTED_EDGE('',*,*,#254,.T.);
#319=ORIENTED_EDGE('',*,*,#239,.T.);
#320=ORIENTED_EDGE('',*,*,#241,.T.);
#321=ORIENTED_EDGE('',*,*,#234,.F.);
#322=ORIENTED_EDGE('',*,*,#255,.T.);
#323=ORIENTED_EDGE('',*,*,#250,.T.);
#324=ORIENTED_EDGE('',*,*,#252,.T.);
#325=ORIENTED_EDGE('',*,*,#245,.F.);
#326=ORIENTED_EDGE('',*,*,#256,.T.);
#327=ORIENTED_EDGE('',*,*,#215,.T.);
#328=ORIENTED_EDGE('',*,*,#217,.T.);
#329=ORIENTED_EDGE('',*,*,#229,.T.);
#330=ORIENTED_EDGE('',*,*,#253,.F.);
#331=ORIENTED_EDGE('',*,*,#244,.T.);
#332=ORIENTED_EDGE('',*,*,#248,.T.);
#333=ORIENTED_EDGE('',*,*,#251,.T.);
#334=ORIENTED_EDGE('',*,*,#255,.F.);
#335=ORIENTED_EDGE('',*,*,#233,.T.);
#336=ORIENTED_EDGE('',*,*,#237,.T.);
#337=ORIENTED_EDGE('',*,*,#240,.T.);
#338=ORIENTED_EDGE('',*,*,#254,.F.);
#339=ORIENTED_EDGE('',*,*,#222,.T.);
#340=ORIENTED_EDGE('',*,*,#226,.T.);
#341=ORIENTED_EDGE('',*,*,#219,.T.);
#342=ORIENTED_EDGE('',*,*,#256,.F.);
#343=EDGE_LOOP('',(#257));
#344=EDGE_LOOP('',(#258));
#345=EDGE_LOOP('',(#259));
#346=EDGE_LOOP('',(#260));
#347=EDGE_LOOP('',(#261));
#348=EDGE_LOOP('',(#262));
#349=EDGE_LOOP('',(#263));
#350=EDGE_LOOP('',(#264));
#351=EDGE_LOOP('',(#265));
#352=EDGE_LOOP('',(#266,#267,#268,#269));
#353=EDGE_LOOP('',(#270,#271,#272,#273));
#354=EDGE_LOOP('',(#274,#275,#276,#277));
#355=EDGE_LOOP('',(#278,#279,#280,#281));
#356=EDGE_LOOP('',(#282,#283,#284,#285));
#357=EDGE_LOOP('',(#286,#287,#288,#289));
#358=EDGE_LOOP('',(#290,#291,#292,#293));
#359=EDGE_LOOP('',(#294,#295,#296,#297));
#360=EDGE_LOOP('',(#298,#299,#300,#301));
#361=EDGE_LOOP('',(#302,#303,#304,#305));
#362=EDGE_LOOP('',(#306,#307,#308,#309));
#363=EDGE_LOOP('',(#310,#311,#312,#313));
#364=EDGE_LOOP('',(#314,#315,#316,#317,#318,#319,#320,#321,#322,#323,#324,
#325));
#365=EDGE_LOOP('',(#326));
#366=EDGE_LOOP('',(#327));
#367=EDGE_LOOP('',(#328));
#368=EDGE_LOOP('',(#329,#330,#331,#332,#333,#334,#335,#336,#337,#338,#339,
#340));
#369=EDGE_LOOP('',(#341));
#370=EDGE_LOOP('',(#342));
#371=FACE_BOUND('',#343,.T.);
#372=FACE_BOUND('',#344,.T.);
#373=FACE_BOUND('',#345,.T.);
#374=FACE_BOUND('',#346,.T.);
#375=FACE_BOUND('',#347,.T.);
#376=FACE_BOUND('',#348,.T.);
#377=FACE_BOUND('',#349,.T.);
#378=FACE_BOUND('',#350,.T.);
#379=FACE_BOUND('',#351,.T.);
#380=FACE_BOUND('',#352,.T.);
#381=FACE_BOUND('',#353,.T.);
#382=FACE_BOUND('',#354,.T.);
#383=FACE_BOUND('',#355,.T.);
#384=FACE_BOUND('',#356,.T.);
#385=FACE_BOUND('',#357,.T.);
#386=FACE_BOUND('',#358,.T.);
#387=FACE_BOUND('',#359,.T.);
#388=FACE_BOUND('',#360,.T.);
#389=FACE_BOUND('',#361,.T.);
#390=FACE_BOUND('',#362,.T.);
#391=FACE_BOUND('',#363,.T.);
#392=FACE_BOUND('',#364,.T.);
#393=FACE_BOUND('',#365,.T.);
#394=FACE_BOUND('',#366,.T.);
#395=FACE_BOUND('',#367,.T.);
#396=FACE_BOUND('',#368,.T.);
#397=FACE_BOUND('',#369,.T.);
#398=FACE_BOUND('',#370,.T.);
#399=ADVANCED_FACE('',(#371,#372),#637,.T.);
#400=ADVANCED_FACE('',(#373),#152,.T.);
#401=ADVANCED_FACE('',(#374,#375),#638,.T.);
#402=ADVANCED_FACE('',(#376),#153,.T.);
#403=ADVANCED_FACE('',(#377,#378),#639,.F.);
#404=ADVANCED_FACE('',(#379),#154,.T.);
#405=ADVANCED_FACE('',(#380),#155,.T.);
#406=ADVANCED_FACE('',(#381),#640,.F.);
#407=ADVANCED_FACE('',(#382),#156,.T.);
#408=ADVANCED_FACE('',(#383),#157,.T.);
#409=ADVANCED_FACE('',(#384),#158,.T.);
#410=ADVANCED_FACE('',(#385),#641,.F.);
#411=ADVANCED_FACE('',(#386),#159,.T.);
#412=ADVANCED_FACE('',(#387),#160,.T.);
#413=ADVANCED_FACE('',(#388),#161,.T.);
#414=ADVANCED_FACE('',(#389),#642,.F.);
#415=ADVANCED_FACE('',(#390),#162,.T.);
#416=ADVANCED_FACE('',(#391),#163,.T.);
#417=ADVANCED_FACE('',(#392,#393),#643,.T.);
#418=ADVANCED_FACE('',(#394,#395,#396),#164,.T.);
#419=ADVANCED_FACE('',(#397,#398),#165,.F.);
#420=AXIS2_PLACEMENT_3D('',#544,#458,#459);
#421=AXIS2_PLACEMENT_3D('',#545,#460,#461);
#422=AXIS2_PLACEMENT_3D('',#547,#462,#463);
#423=AXIS2_PLACEMENT_3D('',#549,#464,$);
#424=AXIS2_PLACEMENT_3D('',#550,#465,#466);
#425=AXIS2_PLACEMENT_3D('',#551,#467,#468);
#426=AXIS2_PLACEMENT_3D('',#553,#469,#470);
#427=AXIS2_PLACEMENT_3D('',#555,#471,$);
#428=AXIS2_PLACEMENT_3D('',#556,#472,#473);
#429=AXIS2_PLACEMENT_3D('',#557,#474,#475);
#430=AXIS2_PLACEMENT_3D('',#559,#476,#477);
#431=AXIS2_PLACEMENT_3D('',#561,#478,$);
#432=AXIS2_PLACEMENT_3D('',#562,#479,$);
#433=AXIS2_PLACEMENT_3D('',#571,#484,#485);
#434=AXIS2_PLACEMENT_3D('',#572,#486,#487);
#435=AXIS2_PLACEMENT_3D('',#576,#489,#490);
#436=AXIS2_PLACEMENT_3D('',#577,#491,$);
#437=AXIS2_PLACEMENT_3D('',#583,#495,$);
#438=AXIS2_PLACEMENT_3D('',#584,#496,#497);
#439=AXIS2_PLACEMENT_3D('',#585,#498,$);
#440=AXIS2_PLACEMENT_3D('',#594,#503,#504);
#441=AXIS2_PLACEMENT_3D('',#595,#505,#506);
#442=AXIS2_PLACEMENT_3D('',#599,#508,#509);
#443=AXIS2_PLACEMENT_3D('',#600,#510,$);
#444=AXIS2_PLACEMENT_3D('',#606,#514,$);
#445=AXIS2_PLACEMENT_3D('',#607,#515,#516);
#446=AXIS2_PLACEMENT_3D('',#608,#517,$);
#447=AXIS2_PLACEMENT_3D('',#617,#522,#523);
#448=AXIS2_PLACEMENT_3D('',#618,#524,#525);
#449=AXIS2_PLACEMENT_3D('',#622,#527,#528);
#450=AXIS2_PLACEMENT_3D('',#623,#529,$);
#451=AXIS2_PLACEMENT_3D('',#629,#533,$);
#452=AXIS2_PLACEMENT_3D('',#630,#534,#535);
#453=AXIS2_PLACEMENT_3D('',#631,#536,#537);
#454=AXIS2_PLACEMENT_3D('',#632,#538,#539);
#455=AXIS2_PLACEMENT_3D('',#633,#540,#541);
#456=AXIS2_PLACEMENT_3D('',#635,#542,$);
#457=AXIS2_PLACEMENT_3D('',#636,#543,$);
#458=DIRECTION('',(0.,0.,1.));
#459=DIRECTION('',(0.3,0.,0.));
#460=DIRECTION('',(0.,0.,-1.));
#461=DIRECTION('',(0.3,0.,0.));
#462=DIRECTION('',(0.,0.,-1.));
#463=DIRECTION('',(0.3,0.,0.));
#464=DIRECTION('',(0.,0.,1.));
#465=DIRECTION('',(0.,0.,1.));
#466=DIRECTION('',(0.3,0.,0.));
#467=DIRECTION('',(0.,0.,-1.));
#468=DIRECTION('',(0.3,0.,0.));
#469=DIRECTION('',(0.,0.,-1.));
#470=DIRECTION('',(0.3,0.,0.));
#471=DIRECTION('',(0.,0.,1.));
#472=DIRECTION('',(0.,0.,1.));
#473=DIRECTION('',(-1.125,0.,0.));
#474=DIRECTION('',(0.,0.,-1.));
#475=DIRECTION('',(-1.125,0.,0.));
#476=DIRECTION('',(0.,0.,1.));
#477=DIRECTION('',(-1.125,0.,0.));
#478=DIRECTION('',(0.,0.,-1.));
#479=DIRECTION('',(-0.5,-0.866025403784439,0.));
#480=DIRECTION('',(-0.866025403784439,0.5,0.));
#481=DIRECTION('',(0.,0.,1.));
#482=DIRECTION('',(-0.866025403784439,0.5,0.));
#483=DIRECTION('',(0.,0.,1.));
#484=DIRECTION('',(0.,0.,1.));
#485=DIRECTION('',(-2.75,-4.76313972081441,0.));
#486=DIRECTION('',(0.,0.,1.));
#487=DIRECTION('',(-2.75,-4.76313972081441,0.));
#488=DIRECTION('',(0.,0.,1.));
#489=DIRECTION('',(0.,0.,1.));
#490=DIRECTION('',(-2.75,-4.76313972081441,0.));
#491=DIRECTION('',(0.500000000000001,0.866025403784438,0.));
#492=DIRECTION('',(0.866025403784438,-0.500000000000001,0.));
#493=DIRECTION('',(0.,0.,1.));
#494=DIRECTION('',(0.866025403784438,-0.500000000000001,0.));
#495=DIRECTION('',(-1.34685342336648E-28,7.49839489528467E-29,1.));
#496=DIRECTION('',(0.,0.,-1.));
#497=DIRECTION('',(-3.,-5.19615242270663,0.));
#498=DIRECTION('',(-0.5,0.866025403784438,0.));
#499=DIRECTION('',(0.866025403784438,0.5,0.));
#500=DIRECTION('',(0.,0.,1.));
#501=DIRECTION('',(0.866025403784438,0.5,0.));
#502=DIRECTION('',(0.,0.,1.));
#503=DIRECTION('',(0.,0.,1.));
#504=DIRECTION('',(-2.75,4.76313972081441,0.));
#505=DIRECTION('',(0.,0.,1.));
#506=DIRECTION('',(-2.75,4.76313972081441,0.));
#507=DIRECTION('',(0.,0.,1.));
#508=DIRECTION('',(0.,0.,1.));
#509=DIRECTION('',(-2.75,4.76313972081441,0.));
#510=DIRECTION('',(0.5,-0.866025403784439,0.));
#511=DIRECTION('',(-0.866025403784439,-0.5,0.));
#512=DIRECTION('',(0.,0.,1.));
#513=DIRECTION('',(-0.866025403784439,-0.5,0.));
#514=DIRECTION('',(1.31385894333829E-31,-1.5407457315882E-30,1.));
#515=DIRECTION('',(0.,0.,-1.));
#516=DIRECTION('',(-3.,5.19615242270663,0.));
#517=DIRECTION('',(1.,0.,0.));
#518=DIRECTION('',(0.,-1.,0.));
#519=DIRECTION('',(0.,0.,1.));
#520=DIRECTION('',(0.,-1.,0.));
#521=DIRECTION('',(0.,0.,1.));
#522=DIRECTION('',(0.,0.,1.));
#523=DIRECTION('',(5.5,0.,0.));
#524=DIRECTION('',(0.,0.,1.));
#525=DIRECTION('',(5.5,0.,0.));
#526=DIRECTION('',(0.,0.,1.));
#527=DIRECTION('',(0.,0.,1.));
#528=DIRECTION('',(5.5,0.,0.));
#529=DIRECTION('',(-1.,0.,0.));
#530=DIRECTION('',(0.,1.,0.));
#531=DIRECTION('',(0.,0.,1.));
#532=DIRECTION('',(0.,1.,0.));
#533=DIRECTION('',(2.5304778988896E-31,2.69338869540217E-29,1.));
#534=DIRECTION('',(0.,0.,-1.));
#535=DIRECTION('',(6.,0.,0.));
#536=DIRECTION('',(0.,0.,1.));
#537=DIRECTION('',(6.,0.,0.));
#538=DIRECTION('',(0.,0.,-1.));
#539=DIRECTION('',(6.,0.,0.));
#540=DIRECTION('',(0.,0.,1.));
#541=DIRECTION('',(6.,0.,0.));
#542=DIRECTION('',(0.,0.,1.));
#543=DIRECTION('',(0.,0.,1.));
#544=CARTESIAN_POINT('',(-3.25,0.,8.5));
#545=CARTESIAN_POINT('',(-3.25,0.,14.5));
#546=CARTESIAN_POINT('',(-2.95,0.,14.5));
#547=CARTESIAN_POINT('',(-3.25,0.,8.5));
#548=CARTESIAN_POINT('',(-2.95,0.,8.5));
#549=CARTESIAN_POINT('',(-3.25,0.,14.5));
#550=CARTESIAN_POINT('',(3.25,0.,8.5));
#551=CARTESIAN_POINT('',(3.25,0.,13.));
#552=CARTESIAN_POINT('',(3.55,0.,13.));
#553=CARTESIAN_POINT('',(3.25,0.,8.5));
#554=CARTESIAN_POINT('',(3.55,0.,8.5));
#555=CARTESIAN_POINT('',(3.25,0.,13.));
#556=CARTESIAN_POINT('',(0.,0.,0.));
#557=CARTESIAN_POINT('',(0.,0.,1.));
#558=CARTESIAN_POINT('',(-1.125,0.,1.));
#559=CARTESIAN_POINT('',(0.,0.,0.));
#560=CARTESIAN_POINT('',(-1.125,0.,0.));
#561=CARTESIAN_POINT('',(0.,0.,1.));
#562=CARTESIAN_POINT('',(3.45664843983892,-4.59377311858822,8.5));
#563=CARTESIAN_POINT('',(3.22133466267842,-4.45791464600058,9.));
#564=CARTESIAN_POINT('',(3.69196221699942,-4.72963159117587,9.));
#565=CARTESIAN_POINT('',(3.22133466267843,-4.45791464600058,9.));
#566=CARTESIAN_POINT('',(3.22133466267843,-4.45791464600058,8.5));
#567=CARTESIAN_POINT('',(3.22133466267843,-4.45791464600058,8.5));
#568=CARTESIAN_POINT('',(1.16582421991946,-3.27116513855161,8.5));
#569=CARTESIAN_POINT('',(3.69196221699942,-4.72963159117587,8.5));
#570=CARTESIAN_POINT('',(3.69196221699942,-4.72963159117587,8.5));
#571=CARTESIAN_POINT('',(0.,0.,8.5));
#572=CARTESIAN_POINT('',(0.,0.,9.));
#573=CARTESIAN_POINT('',(5.47133466267843,-0.560800328970607,9.));
#574=CARTESIAN_POINT('',(5.47133466267843,-0.560800328970607,8.5));
#575=CARTESIAN_POINT('',(5.47133466267843,-0.560800328970607,8.5));
#576=CARTESIAN_POINT('',(0.,0.,8.5));
#577=CARTESIAN_POINT('',(5.70664843983893,-0.696658801558249,8.5));
#578=CARTESIAN_POINT('',(5.94196221699942,-0.83251727414589,9.));
#579=CARTESIAN_POINT('',(5.94196221699943,-0.832517274145891,9.));
#580=CARTESIAN_POINT('',(5.94196221699943,-0.832517274145891,8.5));
#581=CARTESIAN_POINT('',(5.94196221699943,-0.832517274145891,8.5));
#582=CARTESIAN_POINT('',(3.41582421991946,0.625949178478369,8.5));
#583=CARTESIAN_POINT('',(4.79426898395064,-2.76797248845138,9.));
#584=CARTESIAN_POINT('',(0.,0.,9.));
#585=CARTESIAN_POINT('',(-5.70664843983893,-0.696658801558245,8.5));
#586=CARTESIAN_POINT('',(-5.47133466267843,-0.560800328970603,9.));
#587=CARTESIAN_POINT('',(-5.94196221699943,-0.832517274145886,9.));
#588=CARTESIAN_POINT('',(-5.47133466267843,-0.560800328970603,9.));
#589=CARTESIAN_POINT('',(-5.47133466267843,-0.560800328970603,8.5));
#590=CARTESIAN_POINT('',(-5.47133466267843,-0.560800328970603,8.5));
#591=CARTESIAN_POINT('',(-3.41582421991947,0.625949178478372,8.5));
#592=CARTESIAN_POINT('',(-5.94196221699943,-0.832517274145886,8.5));
#593=CARTESIAN_POINT('',(-5.94196221699943,-0.832517274145886,8.5));
#594=CARTESIAN_POINT('',(0.,0.,8.5));
#595=CARTESIAN_POINT('',(0.,0.,9.));
#596=CARTESIAN_POINT('',(-3.22133466267843,-4.45791464600058,9.));
#597=CARTESIAN_POINT('',(-3.22133466267843,-4.45791464600058,8.5));
#598=CARTESIAN_POINT('',(-3.22133466267843,-4.45791464600058,8.5));
#599=CARTESIAN_POINT('',(0.,0.,8.5));
#600=CARTESIAN_POINT('',(-3.45664843983893,-4.59377311858822,8.5));
#601=CARTESIAN_POINT('',(-3.69196221699943,-4.72963159117586,9.));
#602=CARTESIAN_POINT('',(-3.69196221699943,-4.72963159117586,9.));
#603=CARTESIAN_POINT('',(-3.69196221699943,-4.72963159117586,8.5));
#604=CARTESIAN_POINT('',(-3.69196221699943,-4.72963159117586,8.5));
#605=CARTESIAN_POINT('',(-1.16582421991946,-3.2711651385516,8.5));
#606=CARTESIAN_POINT('',(-4.79426898395065,-2.76797248845138,9.));
#607=CARTESIAN_POINT('',(0.,0.,9.));
#608=CARTESIAN_POINT('',(2.25,5.29043192014647,8.5));
#609=CARTESIAN_POINT('',(2.25,5.01871497497118,9.));
#610=CARTESIAN_POINT('',(2.25,5.56214886532175,9.));
#611=CARTESIAN_POINT('',(2.25,5.01871497497118,9.));
#612=CARTESIAN_POINT('',(2.25,5.01871497497118,8.5));
#613=CARTESIAN_POINT('',(2.25,5.01871497497118,8.5));
#614=CARTESIAN_POINT('',(2.25,2.64521596007323,8.5));
#615=CARTESIAN_POINT('',(2.25,5.56214886532175,8.5));
#616=CARTESIAN_POINT('',(2.25,5.56214886532175,8.5));
#617=CARTESIAN_POINT('',(0.,0.,8.5));
#618=CARTESIAN_POINT('',(0.,0.,9.));
#619=CARTESIAN_POINT('',(-2.25,5.01871497497118,9.));
#620=CARTESIAN_POINT('',(-2.25,5.01871497497118,8.5));
#621=CARTESIAN_POINT('',(-2.25,5.01871497497118,8.5));
#622=CARTESIAN_POINT('',(0.,0.,8.5));
#623=CARTESIAN_POINT('',(-2.25,5.29043192014647,8.5));
#624=CARTESIAN_POINT('',(-2.25,5.56214886532175,9.));
#625=CARTESIAN_POINT('',(-2.25,5.56214886532175,9.));
#626=CARTESIAN_POINT('',(-2.25,5.56214886532175,8.5));
#627=CARTESIAN_POINT('',(-2.25,5.56214886532175,8.5));
#628=CARTESIAN_POINT('',(-2.25,2.64521596007323,8.5));
#629=CARTESIAN_POINT('',(4.68375338513738E-16,5.53594497690276,9.));
#630=CARTESIAN_POINT('',(0.,0.,9.));
#631=CARTESIAN_POINT('',(0.,0.,0.));
#632=CARTESIAN_POINT('',(0.,0.,8.5));
#633=CARTESIAN_POINT('',(0.,0.,0.));
#634=CARTESIAN_POINT('',(6.,0.,0.));
#635=CARTESIAN_POINT('',(0.,0.,8.5));
#636=CARTESIAN_POINT('',(0.,0.,0.));
#637=CYLINDRICAL_SURFACE('',#420,0.3);
#638=CYLINDRICAL_SURFACE('',#424,0.3);
#639=CYLINDRICAL_SURFACE('',#428,1.125);
#640=CYLINDRICAL_SURFACE('',#433,5.5);
#641=CYLINDRICAL_SURFACE('',#440,5.5);
#642=CYLINDRICAL_SURFACE('',#447,5.5);
#643=CYLINDRICAL_SURFACE('',#453,6.);
#644=CLOSED_SHELL('',(#399,#400,#401,#402,#403,#404,#405,#406,#407,#408,
#409,#410,#411,#412,#413,#414,#415,#416,#417,#418,#419));
#645=MANIFOLD_SOLID_BREP('',#644);
#646=ADVANCED_BREP_SHAPE_REPRESENTATION('',(#645),#103);
ENDSEC;
END-ISO-10303-21;
