ISO-10303-21;
HEADER;
/* Generated by software containing ST-Developer
 * from STEP Tools, Inc. (www.steptools.com) 
 */

FILE_DESCRIPTION(
/* description */ ('Alibre Inc.'),
/* implementation_level */ '2;1');

FILE_NAME(
/* name */ 'export0',
/* time_stamp */ '2018-09-20T19:21:21-05:00',
/* author */ (''),
/* organization */ (''),
/* preprocessor_version */ 'ST-DEVELOPER v17',
/* originating_system */ 'Alibre',
/* authorisation */ '');

FILE_SCHEMA (('CONFIG_CONTROL_DESIGN'));
ENDSEC;

DATA;
#10=MECHANICAL_CONTEXT('detailed design',#18,'mechanical');
#11=PRODUCT_RELATED_PRODUCT_CATEGORY('detail','',(#98));
#12=CC_DESIGN_SECURITY_CLASSIFICATION(#14,(#97));
#13=SECURITY_CLASSIFICATION_LEVEL('unclassified');
#14=SECURITY_CLASSIFICATION('name','Security for version',#13);
#15=SHAPE_DEFINITION_REPRESENTATION(#16,#698);
#16=PRODUCT_DEFINITION_SHAPE('','DefinitionDesc',#96);
#17=APPLICATION_PROTOCOL_DEFINITION('AP definition status',
'config_control_design',1994,#18);
#18=APPLICATION_CONTEXT(
'control the configuration of three dimensional design');
#19=DESIGN_CONTEXT('detailed design',#18,'design');
#20=PERSON_AND_ORGANIZATION_ROLE('creator');
#21=PERSON_AND_ORGANIZATION_ROLE('classification_officer');
#22=PERSON_AND_ORGANIZATION_ROLE('creator');
#23=PERSON_AND_ORGANIZATION_ROLE('design_supplier');
#24=PERSON_AND_ORGANIZATION_ROLE('design_owner');
#25=CC_DESIGN_PERSON_AND_ORGANIZATION_ASSIGNMENT(#57,#20,(#96));
#26=CC_DESIGN_PERSON_AND_ORGANIZATION_ASSIGNMENT(#60,#21,(#14));
#27=CC_DESIGN_PERSON_AND_ORGANIZATION_ASSIGNMENT(#61,#22,(#97));
#28=CC_DESIGN_PERSON_AND_ORGANIZATION_ASSIGNMENT(#62,#23,(#97));
#29=CC_DESIGN_PERSON_AND_ORGANIZATION_ASSIGNMENT(#63,#24,(#98));
#30=DATE_TIME_ROLE('creation_date');
#31=DATE_TIME_ROLE('classification_date');
#32=CC_DESIGN_DATE_AND_TIME_ASSIGNMENT(#86,#30,(#96));
#33=CC_DESIGN_DATE_AND_TIME_ASSIGNMENT(#89,#31,(#14));
#34=CC_DESIGN_APPROVAL(#93,(#96));
#35=CC_DESIGN_APPROVAL(#94,(#97));
#36=CC_DESIGN_APPROVAL(#95,(#14));
#37=APPROVAL_PERSON_ORGANIZATION(#56,#93,#64);
#38=APPROVAL_PERSON_ORGANIZATION(#58,#94,#65);
#39=APPROVAL_PERSON_ORGANIZATION(#59,#95,#66);
#40=ORGANIZATION('DEFINITION_APPROVEDBY_ORG_ID',
'DEFINITION_APPROVEDBY_ORG_NAME','DEFINITION_APPROVEDBY_ORG_DESCR');
#41=ORGANIZATION('DEF_CREATOR_ORG_ID','DEF_CREATOR_ORG_NAME',
'DEF_CREATOR_ORG_DESCR');
#42=ORGANIZATION('APPROVEDBY_ORG_ID','APPROVEDBY_ORG_NAME',
'APPROVEDBY_ORG_DESCR');
#43=ORGANIZATION('SECURITY_APPROVEDBY_ORG_ID',
'SECURITY_APPROVEDBY_ORG_NAME','SECURITY_APPROVEDBY_ORG_DESCR');
#44=ORGANIZATION('CLASSOFFICER_ORG_ID','CLASSOFFICER_ORG_NAME',
'CLASSOFFICER_ORG_DESCR');
#45=ORGANIZATION('CREATOR_ORG_ID','CREATOR_ORG_NAME',
'CREATOR_ORG_DESCR');
#46=ORGANIZATION('SUPPLIER_ORG_ID','SUPPLIER_ORG_NAME',
'SUPPLIER_ORG_DESCR');
#47=ORGANIZATION('OWNER_ORG_ID','OWNER_ORG_NAME','OWNER_ORG_DESCR');
#48=PERSON('DEFINITION_approverID','DEFINITION_APPROVEDBY_LASTNAME',
'DEFINITION_APPROVEDBY_FIRSTNAME',$,$,$);
#49=PERSON('DEF_createrID','DEF_CREATOR_LASTNAME',
'DEF_CREATOR_FIRSTNAME',$,$,$);
#50=PERSON('approverID','APPROVEDBY_LASTNAME','APPROVEDBY_FIRSTNAME',$,
$,$);
#51=PERSON('SECURITY_approverID','SECURITY_LASTNAME',
'SECURITY_APPROVEDBY_FIRSTNAME',$,$,$);
#52=PERSON('classifierID','CLASSOFFICER_LASTNAME',
'CLASSOFFICER_FIRSTNAME',$,$,$);
#53=PERSON('createrID','CREATOR_LASTNAME','CREATOR_FIRSTNAME',$,$,$);
#54=PERSON('supplierID','SUPPLIER_LASTNAME','SUPPLIER_FIRSTNAME',$,$,$);
#55=PERSON('ownerID','OWNER_LASTNAME','OWNER_FIRSTNAME',$,$,$);
#56=PERSON_AND_ORGANIZATION(#48,#40);
#57=PERSON_AND_ORGANIZATION(#49,#41);
#58=PERSON_AND_ORGANIZATION(#50,#42);
#59=PERSON_AND_ORGANIZATION(#51,#43);
#60=PERSON_AND_ORGANIZATION(#52,#44);
#61=PERSON_AND_ORGANIZATION(#53,#45);
#62=PERSON_AND_ORGANIZATION(#54,#46);
#63=PERSON_AND_ORGANIZATION(#55,#47);
#64=APPROVAL_ROLE('definition_approval');
#65=APPROVAL_ROLE('version_approval');
#66=APPROVAL_ROLE('security_approval');
#67=APPROVAL_DATE_TIME(#85,#93);
#68=APPROVAL_DATE_TIME(#87,#94);
#69=APPROVAL_DATE_TIME(#88,#95);
#70=COORDINATED_UNIVERSAL_TIME_OFFSET(5,0,.BEHIND.);
#71=COORDINATED_UNIVERSAL_TIME_OFFSET(5,0,.BEHIND.);
#72=COORDINATED_UNIVERSAL_TIME_OFFSET(5,0,.BEHIND.);
#73=COORDINATED_UNIVERSAL_TIME_OFFSET(5,0,.BEHIND.);
#74=COORDINATED_UNIVERSAL_TIME_OFFSET(5,0,.BEHIND.);
#75=LOCAL_TIME(18,50,9.,#70);
#76=LOCAL_TIME(18,50,9.,#71);
#77=LOCAL_TIME(18,50,9.,#72);
#78=LOCAL_TIME(18,50,9.,#73);
#79=LOCAL_TIME(18,50,9.,#74);
#80=CALENDAR_DATE(2018,20,9);
#81=CALENDAR_DATE(2018,20,9);
#82=CALENDAR_DATE(2018,20,9);
#83=CALENDAR_DATE(2018,20,9);
#84=CALENDAR_DATE(2018,20,9);
#85=DATE_AND_TIME(#80,#75);
#86=DATE_AND_TIME(#81,#76);
#87=DATE_AND_TIME(#82,#77);
#88=DATE_AND_TIME(#83,#78);
#89=DATE_AND_TIME(#84,#79);
#90=APPROVAL_STATUS('not_yet_approved');
#91=APPROVAL_STATUS('not_yet_approved');
#92=APPROVAL_STATUS('not_yet_approved');
#93=APPROVAL(#90,'defintion approval');
#94=APPROVAL(#91,'version approval');
#95=APPROVAL(#92,'security approval');
#96=PRODUCT_DEFINITION('DefinitionID','DefinitionDesc',#97,#19);
#97=PRODUCT_DEFINITION_FORMATION_WITH_SPECIFIED_SOURCE(
'PRODUCT_VERSION_ID','PRODUCT_VERSION_DESCR',#98,.NOT_KNOWN.);
#98=PRODUCT('ID_1','SP-1810','',(#10));
#99=(
LENGTH_UNIT()
NAMED_UNIT(*)
SI_UNIT(.CENTI.,.METRE.)
);
#100=(
NAMED_UNIT(*)
PLANE_ANGLE_UNIT()
SI_UNIT($,.RADIAN.)
);
#101=(
NAMED_UNIT(*)
SI_UNIT($,.STERADIAN.)
SOLID_ANGLE_UNIT()
);
#102=UNCERTAINTY_MEASURE_WITH_UNIT(LENGTH_MEASURE(1.E-6),#99,
'DISTANCE_ACCURACY_VALUE',
'Maximum model space distance between geometric entities at asserted c
onnectivities');
#103=(
GEOMETRIC_REPRESENTATION_CONTEXT(3)
GLOBAL_UNCERTAINTY_ASSIGNED_CONTEXT((#102))
GLOBAL_UNIT_ASSIGNED_CONTEXT((#101,#100,#99))
REPRESENTATION_CONTEXT('ID1','3D')
);
#104=VECTOR('',#530,1.);
#105=VECTOR('',#531,1.);
#106=VECTOR('',#532,1.);
#107=VECTOR('',#533,1.);
#108=VECTOR('',#535,1.);
#109=VECTOR('',#536,1.);
#110=VECTOR('',#537,1.);
#111=VECTOR('',#539,1.);
#112=VECTOR('',#540,1.);
#113=VECTOR('',#541,1.);
#114=VECTOR('',#543,1.);
#115=VECTOR('',#544,1.);
#116=VECTOR('',#549,1.);
#117=VECTOR('',#553,1.);
#118=VECTOR('',#554,1.);
#119=VECTOR('',#555,1.);
#120=VECTOR('',#556,1.);
#121=VECTOR('',#557,1.);
#122=VECTOR('',#558,1.);
#123=VECTOR('',#562,1.);
#124=VECTOR('',#570,1.);
#125=VECTOR('',#575,1.);
#126=VECTOR('',#576,1.);
#127=VECTOR('',#580,1.);
#128=VECTOR('',#581,1.);
#129=VECTOR('',#584,1.);
#130=VECTOR('',#588,1.);
#131=LINE('',#615,#104);
#132=LINE('',#618,#105);
#133=LINE('',#620,#106);
#134=LINE('',#622,#107);
#135=LINE('',#624,#108);
#136=LINE('',#626,#109);
#137=LINE('',#628,#110);
#138=LINE('',#630,#111);
#139=LINE('',#632,#112);
#140=LINE('',#634,#113);
#141=LINE('',#636,#114);
#142=LINE('',#637,#115);
#143=LINE('',#643,#116);
#144=LINE('',#648,#117);
#145=LINE('',#650,#118);
#146=LINE('',#652,#119);
#147=LINE('',#653,#120);
#148=LINE('',#655,#121);
#149=LINE('',#657,#122);
#150=LINE('',#661,#123);
#151=LINE('',#668,#124);
#152=LINE('',#673,#125);
#153=LINE('',#675,#126);
#154=LINE('',#679,#127);
#155=LINE('',#681,#128);
#156=LINE('',#683,#129);
#157=LINE('',#687,#130);
#158=PLANE('',#465);
#159=PLANE('',#469);
#160=PLANE('',#473);
#161=PLANE('',#477);
#162=PLANE('',#478);
#163=PLANE('',#479);
#164=PLANE('',#480);
#165=PLANE('',#481);
#166=PLANE('',#482);
#167=PLANE('',#483);
#168=PLANE('',#486);
#169=PLANE('',#487);
#170=PLANE('',#492);
#171=PLANE('',#496);
#172=PLANE('',#499);
#173=PLANE('',#500);
#174=VERTEX_POINT('',#592);
#175=VERTEX_POINT('',#594);
#176=VERTEX_POINT('',#598);
#177=VERTEX_POINT('',#600);
#178=VERTEX_POINT('',#604);
#179=VERTEX_POINT('',#606);
#180=VERTEX_POINT('',#610);
#181=VERTEX_POINT('',#612);
#182=VERTEX_POINT('',#616);
#183=VERTEX_POINT('',#617);
#184=VERTEX_POINT('',#619);
#185=VERTEX_POINT('',#621);
#186=VERTEX_POINT('',#625);
#187=VERTEX_POINT('',#627);
#188=VERTEX_POINT('',#631);
#189=VERTEX_POINT('',#633);
#190=VERTEX_POINT('',#641);
#191=VERTEX_POINT('',#642);
#192=VERTEX_POINT('',#644);
#193=VERTEX_POINT('',#646);
#194=VERTEX_POINT('',#649);
#195=VERTEX_POINT('',#651);
#196=VERTEX_POINT('',#654);
#197=VERTEX_POINT('',#656);
#198=VERTEX_POINT('',#660);
#199=VERTEX_POINT('',#663);
#200=VERTEX_POINT('',#666);
#201=VERTEX_POINT('',#669);
#202=VERTEX_POINT('',#671);
#203=VERTEX_POINT('',#674);
#204=VERTEX_POINT('',#676);
#205=VERTEX_POINT('',#680);
#206=VERTEX_POINT('',#684);
#207=CIRCLE('',#463,0.0110822318441682);
#208=CIRCLE('',#464,0.0110822318441682);
#209=CIRCLE('',#467,0.022753241292756);
#210=CIRCLE('',#468,0.022753241292756);
#211=CIRCLE('',#471,0.0110822318441682);
#212=CIRCLE('',#472,0.0110822318441682);
#213=CIRCLE('',#475,0.022753241292756);
#214=CIRCLE('',#476,0.022753241292756);
#215=CIRCLE('',#484,0.5);
#216=CIRCLE('',#485,0.5);
#217=CIRCLE('',#488,0.5);
#218=CIRCLE('',#490,0.5);
#219=CIRCLE('',#491,0.5);
#220=CIRCLE('',#493,0.5);
#221=CIRCLE('',#495,0.5);
#222=CIRCLE('',#498,0.5);
#223=EDGE_CURVE('',#174,#174,#207,.T.);
#224=EDGE_CURVE('',#175,#175,#208,.T.);
#225=EDGE_CURVE('',#176,#176,#209,.T.);
#226=EDGE_CURVE('',#177,#177,#210,.T.);
#227=EDGE_CURVE('',#178,#178,#211,.T.);
#228=EDGE_CURVE('',#179,#179,#212,.T.);
#229=EDGE_CURVE('',#180,#180,#213,.T.);
#230=EDGE_CURVE('',#181,#181,#214,.T.);
#231=EDGE_CURVE('',#182,#183,#131,.T.);
#232=EDGE_CURVE('',#184,#183,#132,.T.);
#233=EDGE_CURVE('',#185,#184,#133,.T.);
#234=EDGE_CURVE('',#185,#182,#134,.T.);
#235=EDGE_CURVE('',#183,#186,#135,.T.);
#236=EDGE_CURVE('',#187,#186,#136,.T.);
#237=EDGE_CURVE('',#184,#187,#137,.T.);
#238=EDGE_CURVE('',#186,#188,#138,.T.);
#239=EDGE_CURVE('',#189,#188,#139,.T.);
#240=EDGE_CURVE('',#187,#189,#140,.T.);
#241=EDGE_CURVE('',#188,#182,#141,.T.);
#242=EDGE_CURVE('',#189,#185,#142,.T.);
#243=EDGE_CURVE('',#190,#191,#215,.T.);
#244=EDGE_CURVE('',#192,#190,#143,.T.);
#245=EDGE_CURVE('',#193,#192,#216,.T.);
#246=EDGE_CURVE('',#191,#193,#143,.T.);
#247=EDGE_CURVE('',#194,#190,#144,.T.);
#248=EDGE_CURVE('',#195,#194,#145,.T.);
#249=EDGE_CURVE('',#195,#192,#146,.T.);
#250=EDGE_CURVE('',#191,#196,#147,.T.);
#251=EDGE_CURVE('',#197,#193,#148,.T.);
#252=EDGE_CURVE('',#196,#197,#149,.T.);
#253=EDGE_CURVE('',#194,#198,#217,.T.);
#254=EDGE_CURVE('',#195,#198,#150,.T.);
#255=EDGE_CURVE('',#199,#196,#217,.T.);
#256=EDGE_CURVE('',#198,#199,#218,.T.);
#257=EDGE_CURVE('',#200,#200,#219,.T.);
#258=EDGE_CURVE('',#199,#197,#151,.T.);
#259=EDGE_CURVE('',#201,#199,#151,.T.);
#260=EDGE_CURVE('',#202,#201,#220,.T.);
#261=EDGE_CURVE('',#198,#202,#150,.T.);
#262=EDGE_CURVE('',#203,#197,#152,.T.);
#263=EDGE_CURVE('',#204,#195,#153,.T.);
#264=EDGE_CURVE('',#204,#203,#221,.T.);
#265=EDGE_CURVE('',#205,#202,#154,.T.);
#266=EDGE_CURVE('',#204,#205,#155,.T.);
#267=EDGE_CURVE('',#206,#201,#156,.T.);
#268=EDGE_CURVE('',#206,#205,#222,.T.);
#269=EDGE_CURVE('',#206,#203,#157,.T.);
#270=ORIENTED_EDGE('',*,*,#223,.T.);
#271=ORIENTED_EDGE('',*,*,#224,.F.);
#272=ORIENTED_EDGE('',*,*,#223,.F.);
#273=ORIENTED_EDGE('',*,*,#225,.T.);
#274=ORIENTED_EDGE('',*,*,#226,.F.);
#275=ORIENTED_EDGE('',*,*,#224,.T.);
#276=ORIENTED_EDGE('',*,*,#225,.F.);
#277=ORIENTED_EDGE('',*,*,#227,.T.);
#278=ORIENTED_EDGE('',*,*,#228,.F.);
#279=ORIENTED_EDGE('',*,*,#227,.F.);
#280=ORIENTED_EDGE('',*,*,#229,.T.);
#281=ORIENTED_EDGE('',*,*,#230,.F.);
#282=ORIENTED_EDGE('',*,*,#228,.T.);
#283=ORIENTED_EDGE('',*,*,#229,.F.);
#284=ORIENTED_EDGE('',*,*,#231,.T.);
#285=ORIENTED_EDGE('',*,*,#232,.F.);
#286=ORIENTED_EDGE('',*,*,#233,.F.);
#287=ORIENTED_EDGE('',*,*,#234,.T.);
#288=ORIENTED_EDGE('',*,*,#235,.T.);
#289=ORIENTED_EDGE('',*,*,#236,.F.);
#290=ORIENTED_EDGE('',*,*,#237,.F.);
#291=ORIENTED_EDGE('',*,*,#232,.T.);
#292=ORIENTED_EDGE('',*,*,#238,.T.);
#293=ORIENTED_EDGE('',*,*,#239,.F.);
#294=ORIENTED_EDGE('',*,*,#240,.F.);
#295=ORIENTED_EDGE('',*,*,#236,.T.);
#296=ORIENTED_EDGE('',*,*,#226,.T.);
#297=ORIENTED_EDGE('',*,*,#230,.T.);
#298=ORIENTED_EDGE('',*,*,#241,.T.);
#299=ORIENTED_EDGE('',*,*,#234,.F.);
#300=ORIENTED_EDGE('',*,*,#242,.F.);
#301=ORIENTED_EDGE('',*,*,#239,.T.);
#302=ORIENTED_EDGE('',*,*,#231,.F.);
#303=ORIENTED_EDGE('',*,*,#241,.F.);
#304=ORIENTED_EDGE('',*,*,#238,.F.);
#305=ORIENTED_EDGE('',*,*,#235,.F.);
#306=ORIENTED_EDGE('',*,*,#243,.F.);
#307=ORIENTED_EDGE('',*,*,#244,.F.);
#308=ORIENTED_EDGE('',*,*,#245,.F.);
#309=ORIENTED_EDGE('',*,*,#246,.F.);
#310=ORIENTED_EDGE('',*,*,#247,.F.);
#311=ORIENTED_EDGE('',*,*,#248,.F.);
#312=ORIENTED_EDGE('',*,*,#249,.T.);
#313=ORIENTED_EDGE('',*,*,#244,.T.);
#314=ORIENTED_EDGE('',*,*,#250,.F.);
#315=ORIENTED_EDGE('',*,*,#246,.T.);
#316=ORIENTED_EDGE('',*,*,#251,.F.);
#317=ORIENTED_EDGE('',*,*,#252,.F.);
#318=ORIENTED_EDGE('',*,*,#248,.T.);
#319=ORIENTED_EDGE('',*,*,#253,.T.);
#320=ORIENTED_EDGE('',*,*,#254,.F.);
#321=ORIENTED_EDGE('',*,*,#250,.T.);
#322=ORIENTED_EDGE('',*,*,#255,.F.);
#323=ORIENTED_EDGE('',*,*,#256,.F.);
#324=ORIENTED_EDGE('',*,*,#253,.F.);
#325=ORIENTED_EDGE('',*,*,#247,.T.);
#326=ORIENTED_EDGE('',*,*,#243,.T.);
#327=ORIENTED_EDGE('',*,*,#257,.T.);
#328=ORIENTED_EDGE('',*,*,#257,.F.);
#329=ORIENTED_EDGE('',*,*,#252,.T.);
#330=ORIENTED_EDGE('',*,*,#258,.F.);
#331=ORIENTED_EDGE('',*,*,#255,.T.);
#332=ORIENTED_EDGE('',*,*,#233,.T.);
#333=ORIENTED_EDGE('',*,*,#237,.T.);
#334=ORIENTED_EDGE('',*,*,#240,.T.);
#335=ORIENTED_EDGE('',*,*,#242,.T.);
#336=ORIENTED_EDGE('',*,*,#256,.T.);
#337=ORIENTED_EDGE('',*,*,#259,.F.);
#338=ORIENTED_EDGE('',*,*,#260,.F.);
#339=ORIENTED_EDGE('',*,*,#261,.F.);
#340=ORIENTED_EDGE('',*,*,#262,.T.);
#341=ORIENTED_EDGE('',*,*,#251,.T.);
#342=ORIENTED_EDGE('',*,*,#245,.T.);
#343=ORIENTED_EDGE('',*,*,#249,.F.);
#344=ORIENTED_EDGE('',*,*,#263,.F.);
#345=ORIENTED_EDGE('',*,*,#264,.T.);
#346=ORIENTED_EDGE('',*,*,#254,.T.);
#347=ORIENTED_EDGE('',*,*,#261,.T.);
#348=ORIENTED_EDGE('',*,*,#265,.F.);
#349=ORIENTED_EDGE('',*,*,#266,.F.);
#350=ORIENTED_EDGE('',*,*,#263,.T.);
#351=ORIENTED_EDGE('',*,*,#260,.T.);
#352=ORIENTED_EDGE('',*,*,#267,.F.);
#353=ORIENTED_EDGE('',*,*,#268,.T.);
#354=ORIENTED_EDGE('',*,*,#265,.T.);
#355=ORIENTED_EDGE('',*,*,#259,.T.);
#356=ORIENTED_EDGE('',*,*,#258,.T.);
#357=ORIENTED_EDGE('',*,*,#262,.F.);
#358=ORIENTED_EDGE('',*,*,#269,.F.);
#359=ORIENTED_EDGE('',*,*,#267,.T.);
#360=ORIENTED_EDGE('',*,*,#269,.T.);
#361=ORIENTED_EDGE('',*,*,#264,.F.);
#362=ORIENTED_EDGE('',*,*,#266,.T.);
#363=ORIENTED_EDGE('',*,*,#268,.F.);
#364=EDGE_LOOP('',(#270));
#365=EDGE_LOOP('',(#271));
#366=EDGE_LOOP('',(#272));
#367=EDGE_LOOP('',(#273));
#368=EDGE_LOOP('',(#274));
#369=EDGE_LOOP('',(#275));
#370=EDGE_LOOP('',(#276));
#371=EDGE_LOOP('',(#277));
#372=EDGE_LOOP('',(#278));
#373=EDGE_LOOP('',(#279));
#374=EDGE_LOOP('',(#280));
#375=EDGE_LOOP('',(#281));
#376=EDGE_LOOP('',(#282));
#377=EDGE_LOOP('',(#283));
#378=EDGE_LOOP('',(#284,#285,#286,#287));
#379=EDGE_LOOP('',(#288,#289,#290,#291));
#380=EDGE_LOOP('',(#292,#293,#294,#295));
#381=EDGE_LOOP('',(#296));
#382=EDGE_LOOP('',(#297));
#383=EDGE_LOOP('',(#298,#299,#300,#301));
#384=EDGE_LOOP('',(#302,#303,#304,#305));
#385=EDGE_LOOP('',(#306,#307,#308,#309));
#386=EDGE_LOOP('',(#310,#311,#312,#313));
#387=EDGE_LOOP('',(#314,#315,#316,#317));
#388=EDGE_LOOP('',(#318,#319,#320));
#389=EDGE_LOOP('',(#321,#322,#323,#324,#325,#326));
#390=EDGE_LOOP('',(#327));
#391=EDGE_LOOP('',(#328));
#392=EDGE_LOOP('',(#329,#330,#331));
#393=EDGE_LOOP('',(#332,#333,#334,#335));
#394=EDGE_LOOP('',(#336,#337,#338,#339));
#395=EDGE_LOOP('',(#340,#341,#342,#343,#344,#345));
#396=EDGE_LOOP('',(#346,#347,#348,#349,#350));
#397=EDGE_LOOP('',(#351,#352,#353,#354));
#398=EDGE_LOOP('',(#355,#356,#357,#358,#359));
#399=EDGE_LOOP('',(#360,#361,#362,#363));
#400=FACE_BOUND('',#364,.T.);
#401=FACE_BOUND('',#365,.T.);
#402=FACE_BOUND('',#366,.T.);
#403=FACE_BOUND('',#367,.T.);
#404=FACE_BOUND('',#368,.T.);
#405=FACE_BOUND('',#369,.T.);
#406=FACE_BOUND('',#370,.T.);
#407=FACE_BOUND('',#371,.T.);
#408=FACE_BOUND('',#372,.T.);
#409=FACE_BOUND('',#373,.T.);
#410=FACE_BOUND('',#374,.T.);
#411=FACE_BOUND('',#375,.T.);
#412=FACE_BOUND('',#376,.T.);
#413=FACE_BOUND('',#377,.T.);
#414=FACE_BOUND('',#378,.T.);
#415=FACE_BOUND('',#379,.T.);
#416=FACE_BOUND('',#380,.T.);
#417=FACE_BOUND('',#381,.T.);
#418=FACE_BOUND('',#382,.T.);
#419=FACE_BOUND('',#383,.T.);
#420=FACE_BOUND('',#384,.T.);
#421=FACE_BOUND('',#385,.T.);
#422=FACE_BOUND('',#386,.T.);
#423=FACE_BOUND('',#387,.T.);
#424=FACE_BOUND('',#388,.T.);
#425=FACE_BOUND('',#389,.T.);
#426=FACE_BOUND('',#390,.T.);
#427=FACE_BOUND('',#391,.T.);
#428=FACE_BOUND('',#392,.T.);
#429=FACE_BOUND('',#393,.T.);
#430=FACE_BOUND('',#394,.T.);
#431=FACE_BOUND('',#395,.T.);
#432=FACE_BOUND('',#396,.T.);
#433=FACE_BOUND('',#397,.T.);
#434=FACE_BOUND('',#398,.T.);
#435=FACE_BOUND('',#399,.T.);
#436=ADVANCED_FACE('',(#400,#401),#689,.T.);
#437=ADVANCED_FACE('',(#402),#158,.F.);
#438=ADVANCED_FACE('',(#403,#404),#690,.T.);
#439=ADVANCED_FACE('',(#405,#406),#159,.F.);
#440=ADVANCED_FACE('',(#407,#408),#691,.T.);
#441=ADVANCED_FACE('',(#409),#160,.T.);
#442=ADVANCED_FACE('',(#410,#411),#692,.T.);
#443=ADVANCED_FACE('',(#412,#413),#161,.T.);
#444=ADVANCED_FACE('',(#414),#162,.T.);
#445=ADVANCED_FACE('',(#415),#163,.T.);
#446=ADVANCED_FACE('',(#416),#164,.T.);
#447=ADVANCED_FACE('',(#417,#418,#419),#165,.T.);
#448=ADVANCED_FACE('',(#420),#166,.T.);
#449=ADVANCED_FACE('',(#421),#167,.T.);
#450=ADVANCED_FACE('',(#422),#168,.T.);
#451=ADVANCED_FACE('',(#423),#168,.T.);
#452=ADVANCED_FACE('',(#424),#169,.T.);
#453=ADVANCED_FACE('',(#425,#426),#693,.T.);
#454=ADVANCED_FACE('',(#427),#170,.T.);
#455=ADVANCED_FACE('',(#428),#169,.T.);
#456=ADVANCED_FACE('',(#429,#430),#169,.T.);
#457=ADVANCED_FACE('',(#431),#694,.T.);
#458=ADVANCED_FACE('',(#432),#171,.T.);
#459=ADVANCED_FACE('',(#433),#695,.T.);
#460=ADVANCED_FACE('',(#434),#172,.T.);
#461=ADVANCED_FACE('',(#435),#173,.F.);
#462=AXIS2_PLACEMENT_3D('',#590,#501,#502);
#463=AXIS2_PLACEMENT_3D('',#591,#503,#504);
#464=AXIS2_PLACEMENT_3D('',#593,#505,#506);
#465=AXIS2_PLACEMENT_3D('',#595,#507,$);
#466=AXIS2_PLACEMENT_3D('',#596,#508,#509);
#467=AXIS2_PLACEMENT_3D('',#597,#510,#511);
#468=AXIS2_PLACEMENT_3D('',#599,#512,#513);
#469=AXIS2_PLACEMENT_3D('',#601,#514,$);
#470=AXIS2_PLACEMENT_3D('',#602,#515,#516);
#471=AXIS2_PLACEMENT_3D('',#603,#517,#518);
#472=AXIS2_PLACEMENT_3D('',#605,#519,#520);
#473=AXIS2_PLACEMENT_3D('',#607,#521,$);
#474=AXIS2_PLACEMENT_3D('',#608,#522,#523);
#475=AXIS2_PLACEMENT_3D('',#609,#524,#525);
#476=AXIS2_PLACEMENT_3D('',#611,#526,#527);
#477=AXIS2_PLACEMENT_3D('',#613,#528,$);
#478=AXIS2_PLACEMENT_3D('',#614,#529,$);
#479=AXIS2_PLACEMENT_3D('',#623,#534,$);
#480=AXIS2_PLACEMENT_3D('',#629,#538,$);
#481=AXIS2_PLACEMENT_3D('',#635,#542,$);
#482=AXIS2_PLACEMENT_3D('',#638,#545,$);
#483=AXIS2_PLACEMENT_3D('',#639,#546,$);
#484=AXIS2_PLACEMENT_3D('',#640,#547,#548);
#485=AXIS2_PLACEMENT_3D('',#645,#550,#551);
#486=AXIS2_PLACEMENT_3D('',#647,#552,$);
#487=AXIS2_PLACEMENT_3D('',#658,#559,$);
#488=AXIS2_PLACEMENT_3D('',#659,#560,#561);
#489=AXIS2_PLACEMENT_3D('',#662,#563,#564);
#490=AXIS2_PLACEMENT_3D('',#664,#565,#566);
#491=AXIS2_PLACEMENT_3D('',#665,#567,#568);
#492=AXIS2_PLACEMENT_3D('',#667,#569,$);
#493=AXIS2_PLACEMENT_3D('',#670,#571,#572);
#494=AXIS2_PLACEMENT_3D('',#672,#573,#574);
#495=AXIS2_PLACEMENT_3D('',#677,#577,#578);
#496=AXIS2_PLACEMENT_3D('',#678,#579,$);
#497=AXIS2_PLACEMENT_3D('',#682,#582,#583);
#498=AXIS2_PLACEMENT_3D('',#685,#585,#586);
#499=AXIS2_PLACEMENT_3D('',#686,#587,$);
#500=AXIS2_PLACEMENT_3D('',#688,#589,$);
#501=DIRECTION('',(-1.,0.,0.));
#502=DIRECTION('',(0.,0.,0.0110822318441682));
#503=DIRECTION('',(1.,0.,0.));
#504=DIRECTION('',(0.,0.,0.0110822318441682));
#505=DIRECTION('',(1.,0.,0.));
#506=DIRECTION('',(0.,0.,0.0110822318441682));
#507=DIRECTION('',(1.,0.,0.));
#508=DIRECTION('',(-1.,0.,0.));
#509=DIRECTION('',(0.,0.,0.022753241292756));
#510=DIRECTION('',(1.,0.,0.));
#511=DIRECTION('',(0.,0.,0.022753241292756));
#512=DIRECTION('',(1.,0.,0.));
#513=DIRECTION('',(0.,0.,0.022753241292756));
#514=DIRECTION('',(1.,0.,0.));
#515=DIRECTION('',(-1.,0.,0.));
#516=DIRECTION('',(0.,0.,0.0110822318441682));
#517=DIRECTION('',(1.,0.,0.));
#518=DIRECTION('',(0.,0.,0.0110822318441682));
#519=DIRECTION('',(1.,0.,0.));
#520=DIRECTION('',(0.,0.,0.0110822318441682));
#521=DIRECTION('',(-1.,0.,0.));
#522=DIRECTION('',(-1.,0.,0.));
#523=DIRECTION('',(0.,0.,0.022753241292756));
#524=DIRECTION('',(1.,0.,0.));
#525=DIRECTION('',(0.,0.,0.022753241292756));
#526=DIRECTION('',(1.,0.,0.));
#527=DIRECTION('',(0.,0.,0.022753241292756));
#528=DIRECTION('',(-1.,0.,0.));
#529=DIRECTION('',(0.,1.,0.));
#530=DIRECTION('',(1.,0.,0.));
#531=DIRECTION('',(0.,0.,1.));
#532=DIRECTION('',(1.,0.,0.));
#533=DIRECTION('',(0.,0.,1.));
#534=DIRECTION('',(1.,0.,0.));
#535=DIRECTION('',(0.,-1.,0.));
#536=DIRECTION('',(0.,0.,1.));
#537=DIRECTION('',(0.,-1.,0.));
#538=DIRECTION('',(0.,-1.,0.));
#539=DIRECTION('',(-1.,0.,0.));
#540=DIRECTION('',(0.,0.,1.));
#541=DIRECTION('',(-1.,0.,0.));
#542=DIRECTION('',(-1.,0.,0.));
#543=DIRECTION('',(0.,1.,0.));
#544=DIRECTION('',(0.,1.,0.));
#545=DIRECTION('',(2.1689539922837E-31,2.28064379444528E-49,1.));
#546=DIRECTION('',(-5.57507755888195E-31,-5.86950078289426E-33,1.));
#547=DIRECTION('',(-5.57507755888195E-31,-5.86950078289426E-33,1.));
#548=DIRECTION('',(0.5,0.,0.));
#549=DIRECTION('',(0.,1.,0.));
#550=DIRECTION('',(0.,0.,-1.));
#551=DIRECTION('',(0.5,0.,0.));
#552=DIRECTION('',(-1.,0.,0.));
#553=DIRECTION('',(0.,0.,1.));
#554=DIRECTION('',(0.,1.,0.));
#555=DIRECTION('',(0.,0.,1.));
#556=DIRECTION('',(0.,0.,-1.));
#557=DIRECTION('',(0.,0.,1.));
#558=DIRECTION('',(0.,1.,0.));
#559=DIRECTION('',(0.,0.,1.));
#560=DIRECTION('',(0.,0.,-1.));
#561=DIRECTION('',(0.5,0.,0.));
#562=DIRECTION('',(-1.,0.,0.));
#563=DIRECTION('',(0.,0.,1.));
#564=DIRECTION('',(0.5,0.,0.));
#565=DIRECTION('',(0.,0.,-1.));
#566=DIRECTION('',(0.5,0.,0.));
#567=DIRECTION('',(0.,0.,-1.));
#568=DIRECTION('',(0.5,0.,0.));
#569=DIRECTION('',(0.,0.,1.));
#570=DIRECTION('',(1.,0.,0.));
#571=DIRECTION('',(0.,0.,-1.));
#572=DIRECTION('',(0.5,0.,0.));
#573=DIRECTION('',(0.,0.,1.));
#574=DIRECTION('',(0.5,0.,0.));
#575=DIRECTION('',(0.,0.,1.));
#576=DIRECTION('',(0.,0.,1.));
#577=DIRECTION('',(0.,0.,1.));
#578=DIRECTION('',(0.5,0.,0.));
#579=DIRECTION('',(0.,-1.,0.));
#580=DIRECTION('',(0.,0.,1.));
#581=DIRECTION('',(-1.,0.,0.));
#582=DIRECTION('',(0.,0.,1.));
#583=DIRECTION('',(0.5,0.,0.));
#584=DIRECTION('',(0.,0.,1.));
#585=DIRECTION('',(0.,0.,1.));
#586=DIRECTION('',(0.5,0.,0.));
#587=DIRECTION('',(0.,1.,0.));
#588=DIRECTION('',(1.,0.,0.));
#589=DIRECTION('',(0.,0.,1.));
#590=CARTESIAN_POINT('',(-4.41112795472145,-0.123024083673954,0.365577727556229));
#591=CARTESIAN_POINT('',(-4.51112795472145,-0.123024083673954,0.365577727556229));
#592=CARTESIAN_POINT('',(-4.51112795472145,-0.123024083673954,0.376659959400397));
#593=CARTESIAN_POINT('',(-4.41112795472145,-0.123024083673954,0.365577727556229));
#594=CARTESIAN_POINT('',(-4.41112795472145,-0.123024083673954,0.376659959400397));
#595=CARTESIAN_POINT('',(-4.51112795472145,-0.123024083673954,0.365577727556229));
#596=CARTESIAN_POINT('',(-0.411127954721451,-0.123024083673954,0.365577727556229));
#597=CARTESIAN_POINT('',(-4.41112795472145,-0.123024083673954,0.365577727556229));
#598=CARTESIAN_POINT('',(-4.41112795472145,-0.123024083673954,0.388330968848985));
#599=CARTESIAN_POINT('',(-0.411127954721451,-0.123024083673954,0.365577727556229));
#600=CARTESIAN_POINT('',(-0.411127954721451,-0.123024083673954,0.388330968848985));
#601=CARTESIAN_POINT('',(-4.41112795472145,-0.123024083673954,0.365577727556229));
#602=CARTESIAN_POINT('',(-4.41112795472145,0.123024083673954,0.365577727556229));
#603=CARTESIAN_POINT('',(-4.51112795472145,0.123024083673954,0.365577727556229));
#604=CARTESIAN_POINT('',(-4.51112795472145,0.123024083673954,0.376659959400397));
#605=CARTESIAN_POINT('',(-4.41112795472145,0.123024083673954,0.365577727556229));
#606=CARTESIAN_POINT('',(-4.41112795472145,0.123024083673954,0.376659959400397));
#607=CARTESIAN_POINT('',(-4.51112795472145,0.123024083673954,0.365577727556229));
#608=CARTESIAN_POINT('',(-0.411127954721451,0.123024083673954,0.365577727556229));
#609=CARTESIAN_POINT('',(-4.41112795472145,0.123024083673954,0.365577727556229));
#610=CARTESIAN_POINT('',(-4.41112795472145,0.123024083673954,0.388330968848985));
#611=CARTESIAN_POINT('',(-0.411127954721451,0.123024083673954,0.365577727556229));
#612=CARTESIAN_POINT('',(-0.411127954721451,0.123024083673954,0.388330968848985));
#613=CARTESIAN_POINT('',(-4.41112795472145,0.123024083673954,0.365577727556229));
#614=CARTESIAN_POINT('',(-0.36507922410965,0.249484524130821,0.34));
#615=CARTESIAN_POINT('',(-0.319030493497849,0.249484524130821,0.39));
#616=CARTESIAN_POINT('',(-0.411127954721451,0.249484524130821,0.39));
#617=CARTESIAN_POINT('',(-0.319030493497849,0.249484524130821,0.39));
#618=CARTESIAN_POINT('',(-0.319030493497849,0.249484524130821,0.34));
#619=CARTESIAN_POINT('',(-0.319030493497849,0.249484524130821,0.34));
#620=CARTESIAN_POINT('',(0.0249603879451752,0.249484524130821,0.34));
#621=CARTESIAN_POINT('',(-0.411127954721451,0.249484524130821,0.34));
#622=CARTESIAN_POINT('',(-0.411127954721451,0.249484524130821,0.34));
#623=CARTESIAN_POINT('',(-0.319030493497849,0.00137457996606827,0.34));
#624=CARTESIAN_POINT('',(-0.319030493497849,-0.246735364198685,0.39));
#625=CARTESIAN_POINT('',(-0.319030493497849,-0.246735364198685,0.39));
#626=CARTESIAN_POINT('',(-0.319030493497849,-0.246735364198685,0.34));
#627=CARTESIAN_POINT('',(-0.319030493497849,-0.246735364198685,0.34));
#628=CARTESIAN_POINT('',(-0.319030493497849,0.000687289983034141,0.34));
#629=CARTESIAN_POINT('',(-0.36507922410965,-0.246735364198685,0.34));
#630=CARTESIAN_POINT('',(-0.411127954721451,-0.246735364198685,0.39));
#631=CARTESIAN_POINT('',(-0.411127954721451,-0.246735364198685,0.39));
#632=CARTESIAN_POINT('',(-0.411127954721451,-0.246735364198685,0.34));
#633=CARTESIAN_POINT('',(-0.411127954721451,-0.246735364198685,0.34));
#634=CARTESIAN_POINT('',(0.0249603879451752,-0.246735364198685,0.34));
#635=CARTESIAN_POINT('',(-0.411127954721451,0.00137457996606827,0.34));
#636=CARTESIAN_POINT('',(-0.411127954721451,0.249484524130821,0.39));
#637=CARTESIAN_POINT('',(-0.411127954721451,0.000687289983034141,0.34));
#638=CARTESIAN_POINT('',(-0.36507922410965,0.00137457996606827,0.39));
#639=CARTESIAN_POINT('',(1.00535453870103,-1.45261859076612E-16,0.345));
#640=CARTESIAN_POINT('',(0.415,0.,0.345));
#641=CARTESIAN_POINT('',(0.83,-0.278881695347687,0.345));
#642=CARTESIAN_POINT('',(0.83,0.278881695347687,0.345));
#643=CARTESIAN_POINT('',(0.83,0.5,0.345));
#644=CARTESIAN_POINT('',(0.83,-0.5,0.345));
#645=CARTESIAN_POINT('',(0.83,-8.27180612553028E-25,0.345));
#646=CARTESIAN_POINT('',(0.83,0.5,0.345));
#647=CARTESIAN_POINT('',(0.83,-3.33066907387547E-16,0.34));
#648=CARTESIAN_POINT('',(0.83,-0.278881695347687,0.3425));
#649=CARTESIAN_POINT('',(0.83,-0.278881695347687,0.34));
#650=CARTESIAN_POINT('',(0.83,-1.59929833244476E-16,0.34));
#651=CARTESIAN_POINT('',(0.83,-0.5,0.34));
#652=CARTESIAN_POINT('',(0.83,-0.5,0.34));
#653=CARTESIAN_POINT('',(0.83,0.278881695347687,0.3425));
#654=CARTESIAN_POINT('',(0.83,0.278881695347687,0.34));
#655=CARTESIAN_POINT('',(0.83,0.5,0.34));
#656=CARTESIAN_POINT('',(0.83,0.5,0.34));
#657=CARTESIAN_POINT('',(0.83,-1.59929833244476E-16,0.34));
#658=CARTESIAN_POINT('',(0.415,1.3207240898595E-17,0.34));
#659=CARTESIAN_POINT('',(0.415,0.,0.34));
#660=CARTESIAN_POINT('',(0.415,-0.5,0.34));
#661=CARTESIAN_POINT('',(0.83,-0.5,0.34));
#662=CARTESIAN_POINT('',(0.415,0.,0.34));
#663=CARTESIAN_POINT('',(0.415,0.5,0.34));
#664=CARTESIAN_POINT('',(0.415,0.,0.34));
#665=CARTESIAN_POINT('',(0.415,0.,0.415));
#666=CARTESIAN_POINT('',(0.915,0.,0.415));
#667=CARTESIAN_POINT('',(0.415,0.,0.415));
#668=CARTESIAN_POINT('',(-6.68817215151996E-17,0.5,0.34));
#669=CARTESIAN_POINT('',(-6.68817215151996E-17,0.5,0.34));
#670=CARTESIAN_POINT('',(0.,0.,0.34));
#671=CARTESIAN_POINT('',(0.,-0.5,0.34));
#672=CARTESIAN_POINT('',(0.83,-8.27180612553028E-25,0.));
#673=CARTESIAN_POINT('',(0.83,0.5,0.));
#674=CARTESIAN_POINT('',(0.83,0.5,0.));
#675=CARTESIAN_POINT('',(0.83,-0.5,0.));
#676=CARTESIAN_POINT('',(0.83,-0.5,0.));
#677=CARTESIAN_POINT('',(0.83,-8.27180612553028E-25,0.));
#678=CARTESIAN_POINT('',(0.415,-0.5,0.));
#679=CARTESIAN_POINT('',(0.,-0.5,0.));
#680=CARTESIAN_POINT('',(0.,-0.5,0.));
#681=CARTESIAN_POINT('',(0.83,-0.5,0.));
#682=CARTESIAN_POINT('',(0.,0.,0.));
#683=CARTESIAN_POINT('',(-6.68817215151996E-17,0.5,0.));
#684=CARTESIAN_POINT('',(-6.68817215151996E-17,0.5,0.));
#685=CARTESIAN_POINT('',(0.,0.,0.));
#686=CARTESIAN_POINT('',(0.415,0.5,0.));
#687=CARTESIAN_POINT('',(-6.68817215151996E-17,0.5,0.));
#688=CARTESIAN_POINT('',(0.415,1.3207240898595E-17,0.));
#689=CYLINDRICAL_SURFACE('',#462,0.0110822318441682);
#690=CYLINDRICAL_SURFACE('',#466,0.022753241292756);
#691=CYLINDRICAL_SURFACE('',#470,0.0110822318441682);
#692=CYLINDRICAL_SURFACE('',#474,0.022753241292756);
#693=CYLINDRICAL_SURFACE('',#489,0.5);
#694=CYLINDRICAL_SURFACE('',#494,0.5);
#695=CYLINDRICAL_SURFACE('',#497,0.5);
#696=CLOSED_SHELL('',(#436,#437,#438,#439,#440,#441,#442,#443,#444,#445,
#446,#447,#448,#449,#450,#451,#452,#453,#454,#455,#456,#457,#458,#459,#460,
#461));
#697=MANIFOLD_SOLID_BREP('',#696);
#698=ADVANCED_BREP_SHAPE_REPRESENTATION('',(#697),#103);
ENDSEC;
END-ISO-10303-21;
