ISO-10303-21;
HEADER;
/* Generated by software containing ST-Developer
 * from STEP Tools, Inc. (www.steptools.com) 
 */

FILE_DESCRIPTION(
/* description */ ('Alibre Inc.'),
/* implementation_level */ '2;1');

FILE_NAME(
/* name */ 'export0',
/* time_stamp */ '2018-11-01T08:06:20-05:00',
/* author */ (''),
/* organization */ (''),
/* preprocessor_version */ 'ST-DEVELOPER v17',
/* originating_system */ 'Alibre',
/* authorisation */ '');

FILE_SCHEMA (('CONFIG_CONTROL_DESIGN'));
ENDSEC;

DATA;
#10=MECHANICAL_CONTEXT('detailed design',#18,'mechanical');
#11=PRODUCT_RELATED_PRODUCT_CATEGORY('detail','',(#98));
#12=CC_DESIGN_SECURITY_CLASSIFICATION(#14,(#97));
#13=SECURITY_CLASSIFICATION_LEVEL('unclassified');
#14=SECURITY_CLASSIFICATION('name','Security for version',#13);
#15=SHAPE_DEFINITION_REPRESENTATION(#16,#547);
#16=PRODUCT_DEFINITION_SHAPE('','DefinitionDesc',#96);
#17=APPLICATION_PROTOCOL_DEFINITION('AP definition status',
'config_control_design',1994,#18);
#18=APPLICATION_CONTEXT(
'control the configuration of three dimensional design');
#19=DESIGN_CONTEXT('detailed design',#18,'design');
#20=PERSON_AND_ORGANIZATION_ROLE('creator');
#21=PERSON_AND_ORGANIZATION_ROLE('classification_officer');
#22=PERSON_AND_ORGANIZATION_ROLE('creator');
#23=PERSON_AND_ORGANIZATION_ROLE('design_supplier');
#24=PERSON_AND_ORGANIZATION_ROLE('design_owner');
#25=CC_DESIGN_PERSON_AND_ORGANIZATION_ASSIGNMENT(#57,#20,(#96));
#26=CC_DESIGN_PERSON_AND_ORGANIZATION_ASSIGNMENT(#60,#21,(#14));
#27=CC_DESIGN_PERSON_AND_ORGANIZATION_ASSIGNMENT(#61,#22,(#97));
#28=CC_DESIGN_PERSON_AND_ORGANIZATION_ASSIGNMENT(#62,#23,(#97));
#29=CC_DESIGN_PERSON_AND_ORGANIZATION_ASSIGNMENT(#63,#24,(#98));
#30=DATE_TIME_ROLE('creation_date');
#31=DATE_TIME_ROLE('classification_date');
#32=CC_DESIGN_DATE_AND_TIME_ASSIGNMENT(#86,#30,(#96));
#33=CC_DESIGN_DATE_AND_TIME_ASSIGNMENT(#89,#31,(#14));
#34=CC_DESIGN_APPROVAL(#93,(#96));
#35=CC_DESIGN_APPROVAL(#94,(#97));
#36=CC_DESIGN_APPROVAL(#95,(#14));
#37=APPROVAL_PERSON_ORGANIZATION(#56,#93,#64);
#38=APPROVAL_PERSON_ORGANIZATION(#58,#94,#65);
#39=APPROVAL_PERSON_ORGANIZATION(#59,#95,#66);
#40=ORGANIZATION('DEFINITION_APPROVEDBY_ORG_ID',
'DEFINITION_APPROVEDBY_ORG_NAME','DEFINITION_APPROVEDBY_ORG_DESCR');
#41=ORGANIZATION('DEF_CREATOR_ORG_ID','DEF_CREATOR_ORG_NAME',
'DEF_CREATOR_ORG_DESCR');
#42=ORGANIZATION('APPROVEDBY_ORG_ID','APPROVEDBY_ORG_NAME',
'APPROVEDBY_ORG_DESCR');
#43=ORGANIZATION('SECURITY_APPROVEDBY_ORG_ID',
'SECURITY_APPROVEDBY_ORG_NAME','SECURITY_APPROVEDBY_ORG_DESCR');
#44=ORGANIZATION('CLASSOFFICER_ORG_ID','CLASSOFFICER_ORG_NAME',
'CLASSOFFICER_ORG_DESCR');
#45=ORGANIZATION('CREATOR_ORG_ID','CREATOR_ORG_NAME',
'CREATOR_ORG_DESCR');
#46=ORGANIZATION('SUPPLIER_ORG_ID','SUPPLIER_ORG_NAME',
'SUPPLIER_ORG_DESCR');
#47=ORGANIZATION('OWNER_ORG_ID','OWNER_ORG_NAME','OWNER_ORG_DESCR');
#48=PERSON('DEFINITION_approverID','DEFINITION_APPROVEDBY_LASTNAME',
'DEFINITION_APPROVEDBY_FIRSTNAME',$,$,$);
#49=PERSON('DEF_createrID','DEF_CREATOR_LASTNAME',
'DEF_CREATOR_FIRSTNAME',$,$,$);
#50=PERSON('approverID','APPROVEDBY_LASTNAME','APPROVEDBY_FIRSTNAME',$,
$,$);
#51=PERSON('SECURITY_approverID','SECURITY_LASTNAME',
'SECURITY_APPROVEDBY_FIRSTNAME',$,$,$);
#52=PERSON('classifierID','CLASSOFFICER_LASTNAME',
'CLASSOFFICER_FIRSTNAME',$,$,$);
#53=PERSON('createrID','CREATOR_LASTNAME','CREATOR_FIRSTNAME',$,$,$);
#54=PERSON('supplierID','SUPPLIER_LASTNAME','SUPPLIER_FIRSTNAME',$,$,$);
#55=PERSON('ownerID','OWNER_LASTNAME','OWNER_FIRSTNAME',$,$,$);
#56=PERSON_AND_ORGANIZATION(#48,#40);
#57=PERSON_AND_ORGANIZATION(#49,#41);
#58=PERSON_AND_ORGANIZATION(#50,#42);
#59=PERSON_AND_ORGANIZATION(#51,#43);
#60=PERSON_AND_ORGANIZATION(#52,#44);
#61=PERSON_AND_ORGANIZATION(#53,#45);
#62=PERSON_AND_ORGANIZATION(#54,#46);
#63=PERSON_AND_ORGANIZATION(#55,#47);
#64=APPROVAL_ROLE('definition_approval');
#65=APPROVAL_ROLE('version_approval');
#66=APPROVAL_ROLE('security_approval');
#67=APPROVAL_DATE_TIME(#85,#93);
#68=APPROVAL_DATE_TIME(#87,#94);
#69=APPROVAL_DATE_TIME(#88,#95);
#70=COORDINATED_UNIVERSAL_TIME_OFFSET(5,0,.BEHIND.);
#71=COORDINATED_UNIVERSAL_TIME_OFFSET(5,0,.BEHIND.);
#72=COORDINATED_UNIVERSAL_TIME_OFFSET(5,0,.BEHIND.);
#73=COORDINATED_UNIVERSAL_TIME_OFFSET(5,0,.BEHIND.);
#74=COORDINATED_UNIVERSAL_TIME_OFFSET(5,0,.BEHIND.);
#75=LOCAL_TIME(20,9,16.,#70);
#76=LOCAL_TIME(20,9,16.,#71);
#77=LOCAL_TIME(20,9,16.,#72);
#78=LOCAL_TIME(20,9,16.,#73);
#79=LOCAL_TIME(20,9,16.,#74);
#80=CALENDAR_DATE(2018,26,9);
#81=CALENDAR_DATE(2018,26,9);
#82=CALENDAR_DATE(2018,26,9);
#83=CALENDAR_DATE(2018,26,9);
#84=CALENDAR_DATE(2018,26,9);
#85=DATE_AND_TIME(#80,#75);
#86=DATE_AND_TIME(#81,#76);
#87=DATE_AND_TIME(#82,#77);
#88=DATE_AND_TIME(#83,#78);
#89=DATE_AND_TIME(#84,#79);
#90=APPROVAL_STATUS('not_yet_approved');
#91=APPROVAL_STATUS('not_yet_approved');
#92=APPROVAL_STATUS('not_yet_approved');
#93=APPROVAL(#90,'defintion approval');
#94=APPROVAL(#91,'version approval');
#95=APPROVAL(#92,'security approval');
#96=PRODUCT_DEFINITION('DefinitionID','DefinitionDesc',#97,#19);
#97=PRODUCT_DEFINITION_FORMATION_WITH_SPECIFIED_SOURCE(
'PRODUCT_VERSION_ID','PRODUCT_VERSION_DESCR',#98,.NOT_KNOWN.);
#98=PRODUCT('ID_1','RC-1504','',(#10));
#99=(
LENGTH_UNIT()
NAMED_UNIT(*)
SI_UNIT(.MILLI.,.METRE.)
);
#100=(
NAMED_UNIT(*)
PLANE_ANGLE_UNIT()
SI_UNIT($,.RADIAN.)
);
#101=(
NAMED_UNIT(*)
SI_UNIT($,.STERADIAN.)
SOLID_ANGLE_UNIT()
);
#102=UNCERTAINTY_MEASURE_WITH_UNIT(LENGTH_MEASURE(1.E-6),#99,
'DISTANCE_ACCURACY_VALUE',
'Maximum model space distance between geometric entities at asserted c
onnectivities');
#103=(
GEOMETRIC_REPRESENTATION_CONTEXT(3)
GLOBAL_UNCERTAINTY_ASSIGNED_CONTEXT((#102))
GLOBAL_UNIT_ASSIGNED_CONTEXT((#101,#100,#99))
REPRESENTATION_CONTEXT('ID1','3D')
);
#104=VECTOR('',#374,1.);
#105=VECTOR('',#375,1.);
#106=VECTOR('',#376,1.);
#107=VECTOR('',#377,1.);
#108=VECTOR('',#379,1.);
#109=VECTOR('',#380,1.);
#110=VECTOR('',#381,1.);
#111=VECTOR('',#382,1.);
#112=LINE('',#501,#104);
#113=LINE('',#504,#105);
#114=LINE('',#506,#106);
#115=LINE('',#508,#107);
#116=LINE('',#510,#108);
#117=LINE('',#513,#109);
#118=LINE('',#515,#110);
#119=LINE('',#517,#111);
#120=B_SPLINE_CURVE_WITH_KNOTS('',3,(#425,#426,#427,#428,#429,#430,#431,
#432,#433,#434,#435,#436,#437,#438,#439,#440,#441,#442,#443,#444,#445,#446,
#447,#448,#449,#450,#451,#452,#453,#454,#455,#456,#457,#458),
 .UNSPECIFIED.,.T.,.U.,(4,2,2,2,2,2,2,2,2,2,2,2,2,2,2,2,4),(0.,0.00687971716522167,
0.0137594343304433,0.022296874431228,0.0308343145320126,0.0392361077891133,
0.047637901046214,0.0544983697262753,0.0613588384063366,0.0682193070863979,
0.0750797757664591,0.0834815690235598,0.0918833622806605,0.100420802381445,
0.10895824248223,0.115837959647451,0.122717676812673),.UNSPECIFIED.);
#121=B_SPLINE_CURVE_WITH_KNOTS('',3,(#464,#465,#466,#467,#468,#469,#470,
#471,#472,#473,#474,#475,#476,#477,#478,#479,#480,#481,#482,#483,#484,#485,
#486,#487,#488,#489,#490,#491,#492,#493,#494,#495,#496,#497),
 .UNSPECIFIED.,.T.,.U.,(4,2,2,2,2,2,2,2,2,2,2,2,2,2,2,2,4),(0.,0.00686046868006129,
0.0137209373601226,0.0221227306172233,0.0305245238743239,0.0390619639751086,
0.0475994040758932,0.0544791212411149,0.0613588384063366,0.0682385555715582,
0.0751182727367799,0.0836557128375645,0.0921931529383492,0.10059494619545,
0.108996739452551,0.115857208132612,0.122717676812673),.UNSPECIFIED.);
#122=PLANE('',#320);
#123=PLANE('',#324);
#124=PLANE('',#327);
#125=PLANE('',#330);
#126=PLANE('',#331);
#127=PLANE('',#332);
#128=PLANE('',#333);
#129=PLANE('',#339);
#130=PLANE('',#344);
#131=PLANE('',#347);
#132=PLANE('',#348);
#133=VERTEX_POINT('',#412);
#134=VERTEX_POINT('',#414);
#135=VERTEX_POINT('',#418);
#136=VERTEX_POINT('',#420);
#137=VERTEX_POINT('',#424);
#138=VERTEX_POINT('',#459);
#139=VERTEX_POINT('',#463);
#140=VERTEX_POINT('',#498);
#141=VERTEX_POINT('',#502);
#142=VERTEX_POINT('',#503);
#143=VERTEX_POINT('',#505);
#144=VERTEX_POINT('',#507);
#145=VERTEX_POINT('',#511);
#146=VERTEX_POINT('',#512);
#147=VERTEX_POINT('',#514);
#148=VERTEX_POINT('',#516);
#149=VERTEX_POINT('',#523);
#150=VERTEX_POINT('',#525);
#151=VERTEX_POINT('',#528);
#152=VERTEX_POINT('',#532);
#153=CIRCLE('',#318,0.0440249032885132);
#154=CIRCLE('',#319,0.0440249032885132);
#155=CIRCLE('',#322,0.0440249032885132);
#156=CIRCLE('',#323,0.0440249032885132);
#157=CIRCLE('',#326,0.183870213209602);
#158=CIRCLE('',#329,0.183870213209602);
#159=CIRCLE('',#334,7.5);
#160=CIRCLE('',#335,5.375);
#161=CIRCLE('',#337,5.5);
#162=CIRCLE('',#338,5.5);
#163=CIRCLE('',#340,7.5);
#164=CIRCLE('',#342,5.375);
#165=CIRCLE('',#343,5.375);
#166=CIRCLE('',#346,7.5);
#167=EDGE_CURVE('',#133,#133,#153,.T.);
#168=EDGE_CURVE('',#134,#134,#154,.T.);
#169=EDGE_CURVE('',#135,#135,#155,.T.);
#170=EDGE_CURVE('',#136,#136,#156,.T.);
#171=EDGE_CURVE('',#137,#137,#157,.T.);
#172=EDGE_CURVE('',#138,#138,#120,.T.);
#173=EDGE_CURVE('',#139,#139,#158,.T.);
#174=EDGE_CURVE('',#140,#140,#121,.T.);
#175=EDGE_CURVE('',#141,#142,#112,.T.);
#176=EDGE_CURVE('',#143,#142,#113,.T.);
#177=EDGE_CURVE('',#144,#143,#114,.T.);
#178=EDGE_CURVE('',#144,#141,#115,.T.);
#179=EDGE_CURVE('',#145,#146,#116,.T.);
#180=EDGE_CURVE('',#147,#146,#117,.T.);
#181=EDGE_CURVE('',#148,#147,#118,.T.);
#182=EDGE_CURVE('',#145,#148,#119,.T.);
#183=EDGE_CURVE('',#146,#141,#159,.T.);
#184=EDGE_CURVE('',#142,#145,#160,.T.);
#185=EDGE_CURVE('',#149,#149,#161,.T.);
#186=EDGE_CURVE('',#150,#150,#162,.T.);
#187=EDGE_CURVE('',#151,#151,#163,.T.);
#188=EDGE_CURVE('',#143,#148,#164,.T.);
#189=EDGE_CURVE('',#152,#152,#165,.T.);
#190=EDGE_CURVE('',#144,#147,#166,.T.);
#191=ORIENTED_EDGE('',*,*,#167,.T.);
#192=ORIENTED_EDGE('',*,*,#168,.F.);
#193=ORIENTED_EDGE('',*,*,#167,.F.);
#194=ORIENTED_EDGE('',*,*,#169,.T.);
#195=ORIENTED_EDGE('',*,*,#170,.F.);
#196=ORIENTED_EDGE('',*,*,#169,.F.);
#197=ORIENTED_EDGE('',*,*,#171,.T.);
#198=ORIENTED_EDGE('',*,*,#172,.F.);
#199=ORIENTED_EDGE('',*,*,#168,.T.);
#200=ORIENTED_EDGE('',*,*,#171,.F.);
#201=ORIENTED_EDGE('',*,*,#173,.T.);
#202=ORIENTED_EDGE('',*,*,#174,.F.);
#203=ORIENTED_EDGE('',*,*,#170,.T.);
#204=ORIENTED_EDGE('',*,*,#173,.F.);
#205=ORIENTED_EDGE('',*,*,#175,.T.);
#206=ORIENTED_EDGE('',*,*,#176,.F.);
#207=ORIENTED_EDGE('',*,*,#177,.F.);
#208=ORIENTED_EDGE('',*,*,#178,.T.);
#209=ORIENTED_EDGE('',*,*,#179,.T.);
#210=ORIENTED_EDGE('',*,*,#180,.F.);
#211=ORIENTED_EDGE('',*,*,#181,.F.);
#212=ORIENTED_EDGE('',*,*,#182,.F.);
#213=ORIENTED_EDGE('',*,*,#175,.F.);
#214=ORIENTED_EDGE('',*,*,#183,.F.);
#215=ORIENTED_EDGE('',*,*,#179,.F.);
#216=ORIENTED_EDGE('',*,*,#184,.F.);
#217=ORIENTED_EDGE('',*,*,#185,.T.);
#218=ORIENTED_EDGE('',*,*,#186,.F.);
#219=ORIENTED_EDGE('',*,*,#185,.F.);
#220=ORIENTED_EDGE('',*,*,#187,.F.);
#221=ORIENTED_EDGE('',*,*,#182,.T.);
#222=ORIENTED_EDGE('',*,*,#188,.F.);
#223=ORIENTED_EDGE('',*,*,#176,.T.);
#224=ORIENTED_EDGE('',*,*,#184,.T.);
#225=ORIENTED_EDGE('',*,*,#189,.T.);
#226=ORIENTED_EDGE('',*,*,#189,.F.);
#227=ORIENTED_EDGE('',*,*,#172,.T.);
#228=ORIENTED_EDGE('',*,*,#174,.T.);
#229=ORIENTED_EDGE('',*,*,#187,.T.);
#230=ORIENTED_EDGE('',*,*,#190,.T.);
#231=ORIENTED_EDGE('',*,*,#180,.T.);
#232=ORIENTED_EDGE('',*,*,#183,.T.);
#233=ORIENTED_EDGE('',*,*,#178,.F.);
#234=ORIENTED_EDGE('',*,*,#181,.T.);
#235=ORIENTED_EDGE('',*,*,#190,.F.);
#236=ORIENTED_EDGE('',*,*,#177,.T.);
#237=ORIENTED_EDGE('',*,*,#188,.T.);
#238=ORIENTED_EDGE('',*,*,#186,.T.);
#239=EDGE_LOOP('',(#191));
#240=EDGE_LOOP('',(#192));
#241=EDGE_LOOP('',(#193));
#242=EDGE_LOOP('',(#194));
#243=EDGE_LOOP('',(#195));
#244=EDGE_LOOP('',(#196));
#245=EDGE_LOOP('',(#197));
#246=EDGE_LOOP('',(#198));
#247=EDGE_LOOP('',(#199));
#248=EDGE_LOOP('',(#200));
#249=EDGE_LOOP('',(#201));
#250=EDGE_LOOP('',(#202));
#251=EDGE_LOOP('',(#203));
#252=EDGE_LOOP('',(#204));
#253=EDGE_LOOP('',(#205,#206,#207,#208));
#254=EDGE_LOOP('',(#209,#210,#211,#212));
#255=EDGE_LOOP('',(#213,#214,#215,#216));
#256=EDGE_LOOP('',(#217));
#257=EDGE_LOOP('',(#218));
#258=EDGE_LOOP('',(#219));
#259=EDGE_LOOP('',(#220));
#260=EDGE_LOOP('',(#221,#222,#223,#224));
#261=EDGE_LOOP('',(#225));
#262=EDGE_LOOP('',(#226));
#263=EDGE_LOOP('',(#227));
#264=EDGE_LOOP('',(#228));
#265=EDGE_LOOP('',(#229));
#266=EDGE_LOOP('',(#230,#231,#232,#233));
#267=EDGE_LOOP('',(#234,#235,#236,#237));
#268=EDGE_LOOP('',(#238));
#269=FACE_BOUND('',#239,.T.);
#270=FACE_BOUND('',#240,.T.);
#271=FACE_BOUND('',#241,.T.);
#272=FACE_BOUND('',#242,.T.);
#273=FACE_BOUND('',#243,.T.);
#274=FACE_BOUND('',#244,.T.);
#275=FACE_BOUND('',#245,.T.);
#276=FACE_BOUND('',#246,.T.);
#277=FACE_BOUND('',#247,.T.);
#278=FACE_BOUND('',#248,.T.);
#279=FACE_BOUND('',#249,.T.);
#280=FACE_BOUND('',#250,.T.);
#281=FACE_BOUND('',#251,.T.);
#282=FACE_BOUND('',#252,.T.);
#283=FACE_BOUND('',#253,.T.);
#284=FACE_BOUND('',#254,.T.);
#285=FACE_BOUND('',#255,.T.);
#286=FACE_BOUND('',#256,.T.);
#287=FACE_BOUND('',#257,.T.);
#288=FACE_BOUND('',#258,.T.);
#289=FACE_BOUND('',#259,.T.);
#290=FACE_BOUND('',#260,.T.);
#291=FACE_BOUND('',#261,.T.);
#292=FACE_BOUND('',#262,.T.);
#293=FACE_BOUND('',#263,.T.);
#294=FACE_BOUND('',#264,.T.);
#295=FACE_BOUND('',#265,.T.);
#296=FACE_BOUND('',#266,.T.);
#297=FACE_BOUND('',#267,.T.);
#298=FACE_BOUND('',#268,.T.);
#299=ADVANCED_FACE('',(#269,#270),#538,.T.);
#300=ADVANCED_FACE('',(#271),#122,.F.);
#301=ADVANCED_FACE('',(#272,#273),#539,.T.);
#302=ADVANCED_FACE('',(#274),#123,.T.);
#303=ADVANCED_FACE('',(#275,#276),#540,.T.);
#304=ADVANCED_FACE('',(#277,#278),#124,.T.);
#305=ADVANCED_FACE('',(#279,#280),#541,.T.);
#306=ADVANCED_FACE('',(#281,#282),#125,.F.);
#307=ADVANCED_FACE('',(#283),#126,.T.);
#308=ADVANCED_FACE('',(#284),#127,.T.);
#309=ADVANCED_FACE('',(#285),#128,.T.);
#310=ADVANCED_FACE('',(#286,#287),#542,.F.);
#311=ADVANCED_FACE('',(#288,#289),#129,.T.);
#312=ADVANCED_FACE('',(#290,#291),#543,.T.);
#313=ADVANCED_FACE('',(#292),#130,.T.);
#314=ADVANCED_FACE('',(#293,#294,#295,#296),#544,.T.);
#315=ADVANCED_FACE('',(#297),#131,.T.);
#316=ADVANCED_FACE('',(#298),#132,.F.);
#317=AXIS2_PLACEMENT_3D('',#410,#349,#350);
#318=AXIS2_PLACEMENT_3D('',#411,#351,#352);
#319=AXIS2_PLACEMENT_3D('',#413,#353,#354);
#320=AXIS2_PLACEMENT_3D('',#415,#355,$);
#321=AXIS2_PLACEMENT_3D('',#416,#356,#357);
#322=AXIS2_PLACEMENT_3D('',#417,#358,#359);
#323=AXIS2_PLACEMENT_3D('',#419,#360,#361);
#324=AXIS2_PLACEMENT_3D('',#421,#362,$);
#325=AXIS2_PLACEMENT_3D('',#422,#363,#364);
#326=AXIS2_PLACEMENT_3D('',#423,#365,#366);
#327=AXIS2_PLACEMENT_3D('',#460,#367,$);
#328=AXIS2_PLACEMENT_3D('',#461,#368,#369);
#329=AXIS2_PLACEMENT_3D('',#462,#370,#371);
#330=AXIS2_PLACEMENT_3D('',#499,#372,$);
#331=AXIS2_PLACEMENT_3D('',#500,#373,$);
#332=AXIS2_PLACEMENT_3D('',#509,#378,$);
#333=AXIS2_PLACEMENT_3D('',#518,#383,$);
#334=AXIS2_PLACEMENT_3D('',#519,#384,#385);
#335=AXIS2_PLACEMENT_3D('',#520,#386,#387);
#336=AXIS2_PLACEMENT_3D('',#521,#388,#389);
#337=AXIS2_PLACEMENT_3D('',#522,#390,#391);
#338=AXIS2_PLACEMENT_3D('',#524,#392,#393);
#339=AXIS2_PLACEMENT_3D('',#526,#394,$);
#340=AXIS2_PLACEMENT_3D('',#527,#395,#396);
#341=AXIS2_PLACEMENT_3D('',#529,#397,#398);
#342=AXIS2_PLACEMENT_3D('',#530,#399,#400);
#343=AXIS2_PLACEMENT_3D('',#531,#401,#402);
#344=AXIS2_PLACEMENT_3D('',#533,#403,$);
#345=AXIS2_PLACEMENT_3D('',#534,#404,#405);
#346=AXIS2_PLACEMENT_3D('',#535,#406,#407);
#347=AXIS2_PLACEMENT_3D('',#536,#408,$);
#348=AXIS2_PLACEMENT_3D('',#537,#409,$);
#349=DIRECTION('',(-1.,0.,0.));
#350=DIRECTION('',(0.,0.,0.0440249032885132));
#351=DIRECTION('',(1.,0.,0.));
#352=DIRECTION('',(0.,0.,0.0440249032885132));
#353=DIRECTION('',(1.,0.,0.));
#354=DIRECTION('',(0.,0.,0.0440249032885132));
#355=DIRECTION('',(1.,0.,0.));
#356=DIRECTION('',(-1.,0.,0.));
#357=DIRECTION('',(0.,0.,0.0440249032885132));
#358=DIRECTION('',(1.,0.,0.));
#359=DIRECTION('',(0.,0.,0.0440249032885132));
#360=DIRECTION('',(1.,0.,0.));
#361=DIRECTION('',(0.,0.,0.0440249032885132));
#362=DIRECTION('',(-1.,0.,0.));
#363=DIRECTION('',(-1.,0.,0.));
#364=DIRECTION('',(0.,0.,-0.183870213209602));
#365=DIRECTION('',(1.,0.,0.));
#366=DIRECTION('',(0.,0.,-0.183870213209602));
#367=DIRECTION('',(-1.,0.,0.));
#368=DIRECTION('',(-1.,0.,0.));
#369=DIRECTION('',(0.,0.,-0.183870213209602));
#370=DIRECTION('',(1.,0.,0.));
#371=DIRECTION('',(0.,0.,-0.183870213209602));
#372=DIRECTION('',(1.,0.,0.));
#373=DIRECTION('',(0.707106781186547,0.707106781186548,0.));
#374=DIRECTION('',(0.707106781186548,-0.707106781186547,0.));
#375=DIRECTION('',(0.,0.,1.));
#376=DIRECTION('',(0.707106781186548,-0.707106781186547,0.));
#377=DIRECTION('',(0.,0.,1.));
#378=DIRECTION('',(0.707106781186548,-0.707106781186548,0.));
#379=DIRECTION('',(-0.707106781186548,-0.707106781186548,0.));
#380=DIRECTION('',(0.,0.,1.));
#381=DIRECTION('',(-0.707106781186548,-0.707106781186548,0.));
#382=DIRECTION('',(0.,0.,-1.));
#383=DIRECTION('',(1.26913056831745E-30,-1.71438699886969E-32,1.));
#384=DIRECTION('',(0.,0.,-1.));
#385=DIRECTION('',(7.5,0.,0.));
#386=DIRECTION('',(1.26913056831745E-30,-1.71438699886969E-32,1.));
#387=DIRECTION('',(5.375,0.,0.));
#388=DIRECTION('',(0.,0.,-1.));
#389=DIRECTION('',(-5.5,0.,0.));
#390=DIRECTION('',(0.,0.,-1.));
#391=DIRECTION('',(-5.5,0.,0.));
#392=DIRECTION('',(0.,0.,-1.));
#393=DIRECTION('',(-5.5,0.,0.));
#394=DIRECTION('',(0.,0.,-1.));
#395=DIRECTION('',(0.,0.,1.));
#396=DIRECTION('',(-7.5,0.,0.));
#397=DIRECTION('',(0.,0.,1.));
#398=DIRECTION('',(5.375,0.,0.));
#399=DIRECTION('',(0.,0.,-1.));
#400=DIRECTION('',(5.375,0.,0.));
#401=DIRECTION('',(0.,0.,-1.));
#402=DIRECTION('',(5.375,0.,0.));
#403=DIRECTION('',(0.,0.,1.));
#404=DIRECTION('',(0.,0.,1.));
#405=DIRECTION('',(7.5,0.,0.));
#406=DIRECTION('',(0.,0.,-1.));
#407=DIRECTION('',(7.5,0.,0.));
#408=DIRECTION('',(0.,0.,1.));
#409=DIRECTION('',(0.,0.,1.));
#410=CARTESIAN_POINT('',(-40.,-4.21582886936716,3.01194404452044));
#411=CARTESIAN_POINT('',(-41.5,-4.21582886936716,3.01194404452044));
#412=CARTESIAN_POINT('',(-41.5,-4.21582886936716,3.05596894780895));
#413=CARTESIAN_POINT('',(-40.,-4.21582886936716,3.01194404452044));
#414=CARTESIAN_POINT('',(-40.,-4.21582886936716,3.05596894780895));
#415=CARTESIAN_POINT('',(-41.5,-4.21582886936716,3.01194404452044));
#416=CARTESIAN_POINT('',(-40.,4.21582886936716,3.01194404452044));
#417=CARTESIAN_POINT('',(-41.5,4.21582886936716,3.01194404452044));
#418=CARTESIAN_POINT('',(-41.5,4.21582886936716,3.05596894780895));
#419=CARTESIAN_POINT('',(-40.,4.21582886936716,3.01194404452044));
#420=CARTESIAN_POINT('',(-40.,4.21582886936716,3.05596894780895));
#421=CARTESIAN_POINT('',(-41.5,4.21582886936716,3.01194404452044));
#422=CARTESIAN_POINT('',(-5.,-4.21582886936716,3.01194404452044));
#423=CARTESIAN_POINT('',(-40.,-4.21582886936716,3.01194404452044));
#424=CARTESIAN_POINT('',(-40.,-4.21582886936716,2.82807383131083));
#425=CARTESIAN_POINT('',(-6.07393183883168,-4.39969908257677,3.01194404452044));
#426=CARTESIAN_POINT('',(-6.07393183883168,-4.39969908257677,2.9890116539697));
#427=CARTESIAN_POINT('',(-6.07725785772284,-4.39511883054368,2.96500020460398));
#428=CARTESIAN_POINT('',(-6.0898124066897,-4.37770304267919,2.92162858503544));
#429=CARTESIAN_POINT('',(-6.09904681076805,-4.36485098209816,2.90227675280259));
#430=CARTESIAN_POINT('',(-6.12141656573532,-4.33344149718138,2.86830581964532));
#431=CARTESIAN_POINT('',(-6.13681535098386,-4.31165061301038,2.85295378576501));
#432=CARTESIAN_POINT('',(-6.16958984323865,-4.26461846934193,2.83282101862104));
#433=CARTESIAN_POINT('',(-6.18696936341208,-4.239365514033,2.82807383131083));
#434=CARTESIAN_POINT('',(-6.21870843408546,-4.19266618592649,2.82807383131083));
#435=CARTESIAN_POINT('',(-6.23553672537266,-4.16759665743281,2.83267668691024));
#436=CARTESIAN_POINT('',(-6.26665773369999,-4.12065610879177,2.85258465702426));
#437=CARTESIAN_POINT('',(-6.28096104166111,-4.09877562283445,2.86785087459794));
#438=CARTESIAN_POINT('',(-6.30153588057279,-4.06705475634836,2.90188978638696));
#439=CARTESIAN_POINT('',(-6.30989100741259,-4.05405579277906,2.92142038698559));
#440=CARTESIAN_POINT('',(-6.32112930564175,-4.03651453769316,2.96501792610232));
#441=CARTESIAN_POINT('',(-6.3240263594514,-4.03195865615756,2.9890758155869));
#442=CARTESIAN_POINT('',(-6.3240263594514,-4.03195865615756,3.03481227345397));
#443=CARTESIAN_POINT('',(-6.32112930564175,-4.03651453769316,3.05887016293855));
#444=CARTESIAN_POINT('',(-6.30989100741259,-4.05405579277906,3.10246770205528));
#445=CARTESIAN_POINT('',(-6.30153588057279,-4.06705475634836,3.12199830265391));
#446=CARTESIAN_POINT('',(-6.28096104166111,-4.09877562283445,3.15603721444293));
#447=CARTESIAN_POINT('',(-6.26665773369999,-4.12065610879177,3.17130343201661));
#448=CARTESIAN_POINT('',(-6.23553672537266,-4.16759665743281,3.19121140213063));
#449=CARTESIAN_POINT('',(-6.21870843408546,-4.19266618592649,3.19581425773004));
#450=CARTESIAN_POINT('',(-6.18696936341208,-4.239365514033,3.19581425773004));
#451=CARTESIAN_POINT('',(-6.16958984323865,-4.26461846934193,3.19106707041983));
#452=CARTESIAN_POINT('',(-6.13681535098386,-4.31165061301038,3.17093430327586));
#453=CARTESIAN_POINT('',(-6.12141656573532,-4.33344149718138,3.15558226939555));
#454=CARTESIAN_POINT('',(-6.09904681076805,-4.36485098209816,3.12161133623828));
#455=CARTESIAN_POINT('',(-6.0898124066897,-4.37770304267919,3.10225950400543));
#456=CARTESIAN_POINT('',(-6.07725785772284,-4.39511883054368,3.05888788443689));
#457=CARTESIAN_POINT('',(-6.07393183883168,-4.39969908257677,3.03487643507117));
#458=CARTESIAN_POINT('',(-6.07393183883168,-4.39969908257677,3.01194404452044));
#459=CARTESIAN_POINT('',(-6.07393183883168,-4.39969908257677,3.01194404452044));
#460=CARTESIAN_POINT('',(-40.,-4.21582886936716,3.01194404452044));
#461=CARTESIAN_POINT('',(-5.,4.21582886936716,3.01194404452044));
#462=CARTESIAN_POINT('',(-40.,4.21582886936716,3.01194404452044));
#463=CARTESIAN_POINT('',(-40.,4.21582886936716,2.82807383131083));
#464=CARTESIAN_POINT('',(-6.3240263594514,4.03195865615756,3.01194404452044));
#465=CARTESIAN_POINT('',(-6.3240263594514,4.03195865615756,2.9890758155869));
#466=CARTESIAN_POINT('',(-6.32112930564175,4.03651453769316,2.96501792610232));
#467=CARTESIAN_POINT('',(-6.30989100741259,4.05405579277906,2.92142038698559));
#468=CARTESIAN_POINT('',(-6.30153588057279,4.06705475634836,2.90188978638696));
#469=CARTESIAN_POINT('',(-6.28096104166111,4.09877562283445,2.86785087459794));
#470=CARTESIAN_POINT('',(-6.26665773369999,4.12065610879177,2.85258465702426));
#471=CARTESIAN_POINT('',(-6.23553672537266,4.16759665743281,2.83267668691024));
#472=CARTESIAN_POINT('',(-6.21870843408546,4.19266618592649,2.82807383131083));
#473=CARTESIAN_POINT('',(-6.18696936341208,4.239365514033,2.82807383131083));
#474=CARTESIAN_POINT('',(-6.16958984323865,4.26461846934193,2.83282101862104));
#475=CARTESIAN_POINT('',(-6.13681535098386,4.31165061301038,2.85295378576501));
#476=CARTESIAN_POINT('',(-6.12141656573532,4.33344149718138,2.86830581964532));
#477=CARTESIAN_POINT('',(-6.09904681076805,4.36485098209816,2.90227675280259));
#478=CARTESIAN_POINT('',(-6.0898124066897,4.37770304267919,2.92162858503545));
#479=CARTESIAN_POINT('',(-6.07725785772284,4.39511883054368,2.96500020460398));
#480=CARTESIAN_POINT('',(-6.07393183883168,4.39969908257677,2.9890116539697));
#481=CARTESIAN_POINT('',(-6.07393183883168,4.39969908257677,3.03487643507117));
#482=CARTESIAN_POINT('',(-6.07725785772284,4.39511883054368,3.05888788443689));
#483=CARTESIAN_POINT('',(-6.0898124066897,4.37770304267919,3.10225950400542));
#484=CARTESIAN_POINT('',(-6.09904681076805,4.36485098209816,3.12161133623828));
#485=CARTESIAN_POINT('',(-6.12141656573532,4.33344149718138,3.15558226939555));
#486=CARTESIAN_POINT('',(-6.13681535098386,4.31165061301038,3.17093430327586));
#487=CARTESIAN_POINT('',(-6.16958984323865,4.26461846934193,3.19106707041983));
#488=CARTESIAN_POINT('',(-6.18696936341208,4.239365514033,3.19581425773004));
#489=CARTESIAN_POINT('',(-6.21870843408546,4.19266618592649,3.19581425773004));
#490=CARTESIAN_POINT('',(-6.23553672537266,4.16759665743281,3.19121140213063));
#491=CARTESIAN_POINT('',(-6.26665773369999,4.12065610879177,3.17130343201661));
#492=CARTESIAN_POINT('',(-6.28096104166111,4.09877562283445,3.15603721444293));
#493=CARTESIAN_POINT('',(-6.30153588057279,4.06705475634836,3.12199830265391));
#494=CARTESIAN_POINT('',(-6.30989100741259,4.05405579277906,3.10246770205528));
#495=CARTESIAN_POINT('',(-6.32112930564175,4.03651453769316,3.05887016293855));
#496=CARTESIAN_POINT('',(-6.3240263594514,4.03195865615756,3.03481227345397));
#497=CARTESIAN_POINT('',(-6.3240263594514,4.03195865615756,3.01194404452044));
#498=CARTESIAN_POINT('',(-6.3240263594514,4.03195865615756,3.01194404452044));
#499=CARTESIAN_POINT('',(-40.,4.21582886936716,3.01194404452044));
#500=CARTESIAN_POINT('',(-4.5519999038884,4.5519999038884,2.75));
#501=CARTESIAN_POINT('',(-3.80069894887769,3.80069894887769,3.25));
#502=CARTESIAN_POINT('',(-5.30330085889911,5.30330085889911,3.25));
#503=CARTESIAN_POINT('',(-3.80069894887769,3.80069894887769,3.25));
#504=CARTESIAN_POINT('',(-3.80069894887769,3.80069894887769,3.));
#505=CARTESIAN_POINT('',(-3.80069894887769,3.80069894887769,2.75));
#506=CARTESIAN_POINT('',(-2.2759999519442,2.2759999519442,2.75));
#507=CARTESIAN_POINT('',(-5.30330085889911,5.30330085889911,2.75));
#508=CARTESIAN_POINT('',(-5.30330085889911,5.30330085889911,2.75));
#509=CARTESIAN_POINT('',(-4.5519999038884,-4.5519999038884,2.75));
#510=CARTESIAN_POINT('',(-5.3033008588991,-5.30330085889911,3.25));
#511=CARTESIAN_POINT('',(-3.80069894887769,-3.80069894887769,3.25));
#512=CARTESIAN_POINT('',(-5.30330085889911,-5.30330085889911,3.25));
#513=CARTESIAN_POINT('',(-5.30330085889911,-5.30330085889911,2.75));
#514=CARTESIAN_POINT('',(-5.30330085889911,-5.30330085889911,2.75));
#515=CARTESIAN_POINT('',(-2.2759999519442,-2.2759999519442,2.75));
#516=CARTESIAN_POINT('',(-3.80069894887769,-3.80069894887769,2.75));
#517=CARTESIAN_POINT('',(-3.80069894887769,-3.80069894887769,3.));
#518=CARTESIAN_POINT('',(-5.6050828076757,4.16333634234434E-16,3.25));
#519=CARTESIAN_POINT('',(0.,0.,3.25));
#520=CARTESIAN_POINT('',(0.,0.,3.25));
#521=CARTESIAN_POINT('',(0.,0.,0.));
#522=CARTESIAN_POINT('',(0.,0.,-0.25));
#523=CARTESIAN_POINT('',(-5.5,0.,-0.25));
#524=CARTESIAN_POINT('',(0.,0.,0.));
#525=CARTESIAN_POINT('',(-5.5,0.,0.));
#526=CARTESIAN_POINT('',(0.,0.,-0.25));
#527=CARTESIAN_POINT('',(0.,0.,-0.25));
#528=CARTESIAN_POINT('',(-7.5,0.,-0.25));
#529=CARTESIAN_POINT('',(0.,0.,2.75));
#530=CARTESIAN_POINT('',(0.,0.,2.75));
#531=CARTESIAN_POINT('',(0.,0.,3.75));
#532=CARTESIAN_POINT('',(5.375,0.,3.75));
#533=CARTESIAN_POINT('',(0.,0.,3.75));
#534=CARTESIAN_POINT('',(0.,0.,0.));
#535=CARTESIAN_POINT('',(0.,0.,2.75));
#536=CARTESIAN_POINT('',(0.,0.,2.75));
#537=CARTESIAN_POINT('',(0.,0.,0.));
#538=CYLINDRICAL_SURFACE('',#317,0.0440249032885132);
#539=CYLINDRICAL_SURFACE('',#321,0.0440249032885132);
#540=CYLINDRICAL_SURFACE('',#325,0.183870213209602);
#541=CYLINDRICAL_SURFACE('',#328,0.183870213209602);
#542=CYLINDRICAL_SURFACE('',#336,5.5);
#543=CYLINDRICAL_SURFACE('',#341,5.375);
#544=CYLINDRICAL_SURFACE('',#345,7.5);
#545=CLOSED_SHELL('',(#299,#300,#301,#302,#303,#304,#305,#306,#307,#308,
#309,#310,#311,#312,#313,#314,#315,#316));
#546=MANIFOLD_SOLID_BREP('',#545);
#547=ADVANCED_BREP_SHAPE_REPRESENTATION('',(#546),#103);
ENDSEC;
END-ISO-10303-21;
