ISO-10303-21;
HEADER;
/* Generated by software containing ST-Developer
 * from STEP Tools, Inc. (www.steptools.com) 
 */

FILE_DESCRIPTION(
/* description */ ('Alibre Inc.'),
/* implementation_level */ '2;1');

FILE_NAME(
/* name */ 'export0',
/* time_stamp */ '2018-10-09T19:41:09-05:00',
/* author */ (''),
/* organization */ (''),
/* preprocessor_version */ 'ST-DEVELOPER v17',
/* originating_system */ 'Alibre',
/* authorisation */ '');

FILE_SCHEMA (('CONFIG_CONTROL_DESIGN'));
ENDSEC;

DATA;
#10=MECHANICAL_CONTEXT('detailed design',#18,'mechanical');
#11=PRODUCT_RELATED_PRODUCT_CATEGORY('detail','',(#98));
#12=CC_DESIGN_SECURITY_CLASSIFICATION(#14,(#97));
#13=SECURITY_CLASSIFICATION_LEVEL('unclassified');
#14=SECURITY_CLASSIFICATION('name','Security for version',#13);
#15=SHAPE_DEFINITION_REPRESENTATION(#16,#232);
#16=PRODUCT_DEFINITION_SHAPE('','DefinitionDesc',#96);
#17=APPLICATION_PROTOCOL_DEFINITION('AP definition status',
'config_control_design',1994,#18);
#18=APPLICATION_CONTEXT(
'control the configuration of three dimensional design');
#19=DESIGN_CONTEXT('detailed design',#18,'design');
#20=PERSON_AND_ORGANIZATION_ROLE('creator');
#21=PERSON_AND_ORGANIZATION_ROLE('classification_officer');
#22=PERSON_AND_ORGANIZATION_ROLE('creator');
#23=PERSON_AND_ORGANIZATION_ROLE('design_supplier');
#24=PERSON_AND_ORGANIZATION_ROLE('design_owner');
#25=CC_DESIGN_PERSON_AND_ORGANIZATION_ASSIGNMENT(#57,#20,(#96));
#26=CC_DESIGN_PERSON_AND_ORGANIZATION_ASSIGNMENT(#60,#21,(#14));
#27=CC_DESIGN_PERSON_AND_ORGANIZATION_ASSIGNMENT(#61,#22,(#97));
#28=CC_DESIGN_PERSON_AND_ORGANIZATION_ASSIGNMENT(#62,#23,(#97));
#29=CC_DESIGN_PERSON_AND_ORGANIZATION_ASSIGNMENT(#63,#24,(#98));
#30=DATE_TIME_ROLE('creation_date');
#31=DATE_TIME_ROLE('classification_date');
#32=CC_DESIGN_DATE_AND_TIME_ASSIGNMENT(#86,#30,(#96));
#33=CC_DESIGN_DATE_AND_TIME_ASSIGNMENT(#89,#31,(#14));
#34=CC_DESIGN_APPROVAL(#93,(#96));
#35=CC_DESIGN_APPROVAL(#94,(#97));
#36=CC_DESIGN_APPROVAL(#95,(#14));
#37=APPROVAL_PERSON_ORGANIZATION(#56,#93,#64);
#38=APPROVAL_PERSON_ORGANIZATION(#58,#94,#65);
#39=APPROVAL_PERSON_ORGANIZATION(#59,#95,#66);
#40=ORGANIZATION('DEFINITION_APPROVEDBY_ORG_ID',
'DEFINITION_APPROVEDBY_ORG_NAME','DEFINITION_APPROVEDBY_ORG_DESCR');
#41=ORGANIZATION('DEF_CREATOR_ORG_ID','DEF_CREATOR_ORG_NAME',
'DEF_CREATOR_ORG_DESCR');
#42=ORGANIZATION('APPROVEDBY_ORG_ID','APPROVEDBY_ORG_NAME',
'APPROVEDBY_ORG_DESCR');
#43=ORGANIZATION('SECURITY_APPROVEDBY_ORG_ID',
'SECURITY_APPROVEDBY_ORG_NAME','SECURITY_APPROVEDBY_ORG_DESCR');
#44=ORGANIZATION('CLASSOFFICER_ORG_ID','CLASSOFFICER_ORG_NAME',
'CLASSOFFICER_ORG_DESCR');
#45=ORGANIZATION('CREATOR_ORG_ID','CREATOR_ORG_NAME',
'CREATOR_ORG_DESCR');
#46=ORGANIZATION('SUPPLIER_ORG_ID','SUPPLIER_ORG_NAME',
'SUPPLIER_ORG_DESCR');
#47=ORGANIZATION('OWNER_ORG_ID','OWNER_ORG_NAME','OWNER_ORG_DESCR');
#48=PERSON('DEFINITION_approverID','DEFINITION_APPROVEDBY_LASTNAME',
'DEFINITION_APPROVEDBY_FIRSTNAME',$,$,$);
#49=PERSON('DEF_createrID','DEF_CREATOR_LASTNAME',
'DEF_CREATOR_FIRSTNAME',$,$,$);
#50=PERSON('approverID','APPROVEDBY_LASTNAME','APPROVEDBY_FIRSTNAME',$,
$,$);
#51=PERSON('SECURITY_approverID','SECURITY_LASTNAME',
'SECURITY_APPROVEDBY_FIRSTNAME',$,$,$);
#52=PERSON('classifierID','CLASSOFFICER_LASTNAME',
'CLASSOFFICER_FIRSTNAME',$,$,$);
#53=PERSON('createrID','CREATOR_LASTNAME','CREATOR_FIRSTNAME',$,$,$);
#54=PERSON('supplierID','SUPPLIER_LASTNAME','SUPPLIER_FIRSTNAME',$,$,$);
#55=PERSON('ownerID','OWNER_LASTNAME','OWNER_FIRSTNAME',$,$,$);
#56=PERSON_AND_ORGANIZATION(#48,#40);
#57=PERSON_AND_ORGANIZATION(#49,#41);
#58=PERSON_AND_ORGANIZATION(#50,#42);
#59=PERSON_AND_ORGANIZATION(#51,#43);
#60=PERSON_AND_ORGANIZATION(#52,#44);
#61=PERSON_AND_ORGANIZATION(#53,#45);
#62=PERSON_AND_ORGANIZATION(#54,#46);
#63=PERSON_AND_ORGANIZATION(#55,#47);
#64=APPROVAL_ROLE('definition_approval');
#65=APPROVAL_ROLE('version_approval');
#66=APPROVAL_ROLE('security_approval');
#67=APPROVAL_DATE_TIME(#85,#93);
#68=APPROVAL_DATE_TIME(#87,#94);
#69=APPROVAL_DATE_TIME(#88,#95);
#70=COORDINATED_UNIVERSAL_TIME_OFFSET(5,0,.BEHIND.);
#71=COORDINATED_UNIVERSAL_TIME_OFFSET(5,0,.BEHIND.);
#72=COORDINATED_UNIVERSAL_TIME_OFFSET(5,0,.BEHIND.);
#73=COORDINATED_UNIVERSAL_TIME_OFFSET(5,0,.BEHIND.);
#74=COORDINATED_UNIVERSAL_TIME_OFFSET(5,0,.BEHIND.);
#75=LOCAL_TIME(19,34,50.,#70);
#76=LOCAL_TIME(19,34,50.,#71);
#77=LOCAL_TIME(19,34,50.,#72);
#78=LOCAL_TIME(19,34,50.,#73);
#79=LOCAL_TIME(19,34,50.,#74);
#80=CALENDAR_DATE(2018,9,10);
#81=CALENDAR_DATE(2018,9,10);
#82=CALENDAR_DATE(2018,9,10);
#83=CALENDAR_DATE(2018,9,10);
#84=CALENDAR_DATE(2018,9,10);
#85=DATE_AND_TIME(#80,#75);
#86=DATE_AND_TIME(#81,#76);
#87=DATE_AND_TIME(#82,#77);
#88=DATE_AND_TIME(#83,#78);
#89=DATE_AND_TIME(#84,#79);
#90=APPROVAL_STATUS('not_yet_approved');
#91=APPROVAL_STATUS('not_yet_approved');
#92=APPROVAL_STATUS('not_yet_approved');
#93=APPROVAL(#90,'defintion approval');
#94=APPROVAL(#91,'version approval');
#95=APPROVAL(#92,'security approval');
#96=PRODUCT_DEFINITION('DefinitionID','DefinitionDesc',#97,#19);
#97=PRODUCT_DEFINITION_FORMATION_WITH_SPECIFIED_SOURCE(
'PRODUCT_VERSION_ID','PRODUCT_VERSION_DESCR',#98,.NOT_KNOWN.);
#98=PRODUCT('ID_1','EM-4015LRNW','',(#10));
#99=(
LENGTH_UNIT()
NAMED_UNIT(*)
SI_UNIT(.MILLI.,.METRE.)
);
#100=(
NAMED_UNIT(*)
PLANE_ANGLE_UNIT()
SI_UNIT($,.RADIAN.)
);
#101=(
NAMED_UNIT(*)
SI_UNIT($,.STERADIAN.)
SOLID_ANGLE_UNIT()
);
#102=UNCERTAINTY_MEASURE_WITH_UNIT(LENGTH_MEASURE(1.E-6),#99,
'DISTANCE_ACCURACY_VALUE',
'Maximum model space distance between geometric entities at asserted c
onnectivities');
#103=(
GEOMETRIC_REPRESENTATION_CONTEXT(3)
GLOBAL_UNCERTAINTY_ASSIGNED_CONTEXT((#102))
GLOBAL_UNIT_ASSIGNED_CONTEXT((#101,#100,#99))
REPRESENTATION_CONTEXT('ID1','3D')
);
#104=PLANE('',#179);
#105=PLANE('',#180);
#106=PLANE('',#185);
#107=CYLINDRICAL_SURFACE('',#176,1.);
#108=CYLINDRICAL_SURFACE('',#183,2.3);
#109=CYLINDRICAL_SURFACE('',#186,2.);
#110=VERTEX_LOOP('',#112);
#111=VERTEX_POINT('',#211);
#112=VERTEX_POINT('',#212);
#113=VERTEX_POINT('',#215);
#114=VERTEX_POINT('',#217);
#115=VERTEX_POINT('',#221);
#116=VERTEX_POINT('',#223);
#117=VERTEX_POINT('',#226);
#118=CIRCLE('',#175,2.);
#119=CIRCLE('',#177,1.);
#120=CIRCLE('',#178,1.);
#121=CIRCLE('',#181,2.3);
#122=CIRCLE('',#182,2.);
#123=CIRCLE('',#184,2.3);
#124=EDGE_CURVE('',#111,#111,#118,.T.);
#125=EDGE_CURVE('',#113,#113,#119,.T.);
#126=EDGE_CURVE('',#114,#114,#120,.T.);
#127=EDGE_CURVE('',#115,#115,#121,.T.);
#128=EDGE_CURVE('',#116,#116,#122,.T.);
#129=EDGE_CURVE('',#117,#117,#123,.T.);
#130=ORIENTED_EDGE('',*,*,#124,.F.);
#131=ORIENTED_EDGE('',*,*,#125,.F.);
#132=ORIENTED_EDGE('',*,*,#126,.F.);
#133=ORIENTED_EDGE('',*,*,#125,.T.);
#134=ORIENTED_EDGE('',*,*,#127,.T.);
#135=ORIENTED_EDGE('',*,*,#128,.F.);
#136=ORIENTED_EDGE('',*,*,#129,.T.);
#137=ORIENTED_EDGE('',*,*,#127,.F.);
#138=ORIENTED_EDGE('',*,*,#126,.T.);
#139=ORIENTED_EDGE('',*,*,#129,.F.);
#140=ORIENTED_EDGE('',*,*,#128,.T.);
#141=ORIENTED_EDGE('',*,*,#124,.T.);
#142=EDGE_LOOP('',(#130));
#143=EDGE_LOOP('',(#131));
#144=EDGE_LOOP('',(#132));
#145=EDGE_LOOP('',(#133));
#146=EDGE_LOOP('',(#134));
#147=EDGE_LOOP('',(#135));
#148=EDGE_LOOP('',(#136));
#149=EDGE_LOOP('',(#137));
#150=EDGE_LOOP('',(#138));
#151=EDGE_LOOP('',(#139));
#152=EDGE_LOOP('',(#140));
#153=EDGE_LOOP('',(#141));
#154=FACE_BOUND('',#142,.T.);
#155=FACE_BOUND('',#110,.T.);
#156=FACE_BOUND('',#143,.T.);
#157=FACE_BOUND('',#144,.T.);
#158=FACE_BOUND('',#145,.T.);
#159=FACE_BOUND('',#146,.T.);
#160=FACE_BOUND('',#147,.T.);
#161=FACE_BOUND('',#148,.T.);
#162=FACE_BOUND('',#149,.T.);
#163=FACE_BOUND('',#150,.T.);
#164=FACE_BOUND('',#151,.T.);
#165=FACE_BOUND('',#152,.T.);
#166=FACE_BOUND('',#153,.T.);
#167=ADVANCED_FACE('',(#154,#155),#229,.T.);
#168=ADVANCED_FACE('',(#156,#157),#107,.F.);
#169=ADVANCED_FACE('',(#158),#104,.T.);
#170=ADVANCED_FACE('',(#159,#160),#105,.T.);
#171=ADVANCED_FACE('',(#161,#162),#108,.T.);
#172=ADVANCED_FACE('',(#163,#164),#106,.F.);
#173=ADVANCED_FACE('',(#165,#166),#109,.T.);
#174=AXIS2_PLACEMENT_3D('',#209,#187,$);
#175=AXIS2_PLACEMENT_3D('',#210,#188,#189);
#176=AXIS2_PLACEMENT_3D('',#213,#190,#191);
#177=AXIS2_PLACEMENT_3D('',#214,#192,#193);
#178=AXIS2_PLACEMENT_3D('',#216,#194,#195);
#179=AXIS2_PLACEMENT_3D('',#218,#196,$);
#180=AXIS2_PLACEMENT_3D('',#219,#197,$);
#181=AXIS2_PLACEMENT_3D('',#220,#198,#199);
#182=AXIS2_PLACEMENT_3D('',#222,#200,#201);
#183=AXIS2_PLACEMENT_3D('',#224,#202,#203);
#184=AXIS2_PLACEMENT_3D('',#225,#204,#205);
#185=AXIS2_PLACEMENT_3D('',#227,#206,$);
#186=AXIS2_PLACEMENT_3D('',#228,#207,#208);
#187=DIRECTION('',(0.,0.,-1.));
#188=DIRECTION('',(0.,0.,-1.));
#189=DIRECTION('',(2.,0.,0.));
#190=DIRECTION('',(0.,0.,1.));
#191=DIRECTION('',(-1.,0.,0.));
#192=DIRECTION('',(0.,0.,-1.));
#193=DIRECTION('',(-1.,0.,0.));
#194=DIRECTION('',(0.,0.,1.));
#195=DIRECTION('',(-1.,0.,0.));
#196=DIRECTION('',(0.,0.,-1.));
#197=DIRECTION('',(0.,0.,1.));
#198=DIRECTION('',(0.,0.,1.));
#199=DIRECTION('',(2.3,0.,0.));
#200=DIRECTION('',(0.,0.,1.));
#201=DIRECTION('',(2.,0.,0.));
#202=DIRECTION('',(0.,0.,-1.));
#203=DIRECTION('',(2.3,0.,0.));
#204=DIRECTION('',(0.,0.,1.));
#205=DIRECTION('',(2.3,0.,0.));
#206=DIRECTION('',(0.,0.,1.));
#207=DIRECTION('',(0.,0.,1.));
#208=DIRECTION('',(2.,0.,0.));
#209=CARTESIAN_POINT('',(0.,0.,-23.6971768972617));
#210=CARTESIAN_POINT('',(0.,0.,1.25));
#211=CARTESIAN_POINT('',(2.,0.,1.25));
#212=CARTESIAN_POINT('',(0.,0.,1.3));
#213=CARTESIAN_POINT('',(0.,0.,-1.));
#214=CARTESIAN_POINT('',(0.,0.,-0.25));
#215=CARTESIAN_POINT('',(-1.,0.,-0.25));
#216=CARTESIAN_POINT('',(0.,0.,-1.));
#217=CARTESIAN_POINT('',(-1.,0.,-1.));
#218=CARTESIAN_POINT('',(0.,0.,-0.25));
#219=CARTESIAN_POINT('',(0.,0.,0.75));
#220=CARTESIAN_POINT('',(0.,0.,0.75));
#221=CARTESIAN_POINT('',(2.3,0.,0.75));
#222=CARTESIAN_POINT('',(0.,0.,0.75));
#223=CARTESIAN_POINT('',(-2.,-2.44929359829471E-16,0.75));
#224=CARTESIAN_POINT('',(0.,0.,0.75));
#225=CARTESIAN_POINT('',(0.,0.,-1.));
#226=CARTESIAN_POINT('',(2.3,0.,-1.));
#227=CARTESIAN_POINT('',(0.,0.,-1.));
#228=CARTESIAN_POINT('',(0.,0.,0.));
#229=DEGENERATE_TOROIDAL_SURFACE('',#174,0.375695577568457,25.,.T.);
#230=CLOSED_SHELL('',(#167,#168,#169,#170,#171,#172,#173));
#231=MANIFOLD_SOLID_BREP('',#230);
#232=ADVANCED_BREP_SHAPE_REPRESENTATION('',(#231),#103);
ENDSEC;
END-ISO-10303-21;
