ISO-10303-21;
HEADER;
/* Generated by software containing ST-Developer
 * from STEP Tools, Inc. (www.steptools.com) 
 */

FILE_DESCRIPTION(
/* description */ ('Alibre Inc.'),
/* implementation_level */ '2;1');

FILE_NAME(
/* name */ 'export0',
/* time_stamp */ '2018-10-08T19:15:34-05:00',
/* author */ (''),
/* organization */ (''),
/* preprocessor_version */ 'ST-DEVELOPER v17',
/* originating_system */ 'Alibre',
/* authorisation */ '');

FILE_SCHEMA (('CONFIG_CONTROL_DESIGN'));
ENDSEC;

DATA;
#10=MECHANICAL_CONTEXT('detailed design',#18,'mechanical');
#11=PRODUCT_RELATED_PRODUCT_CATEGORY('detail','',(#98));
#12=CC_DESIGN_SECURITY_CLASSIFICATION(#14,(#97));
#13=SECURITY_CLASSIFICATION_LEVEL('unclassified');
#14=SECURITY_CLASSIFICATION('name','Security for version',#13);
#15=SHAPE_DEFINITION_REPRESENTATION(#16,#501);
#16=PRODUCT_DEFINITION_SHAPE('','DefinitionDesc',#96);
#17=APPLICATION_PROTOCOL_DEFINITION('AP definition status',
'config_control_design',1994,#18);
#18=APPLICATION_CONTEXT(
'control the configuration of three dimensional design');
#19=DESIGN_CONTEXT('detailed design',#18,'design');
#20=PERSON_AND_ORGANIZATION_ROLE('creator');
#21=PERSON_AND_ORGANIZATION_ROLE('classification_officer');
#22=PERSON_AND_ORGANIZATION_ROLE('creator');
#23=PERSON_AND_ORGANIZATION_ROLE('design_supplier');
#24=PERSON_AND_ORGANIZATION_ROLE('design_owner');
#25=CC_DESIGN_PERSON_AND_ORGANIZATION_ASSIGNMENT(#57,#20,(#96));
#26=CC_DESIGN_PERSON_AND_ORGANIZATION_ASSIGNMENT(#60,#21,(#14));
#27=CC_DESIGN_PERSON_AND_ORGANIZATION_ASSIGNMENT(#61,#22,(#97));
#28=CC_DESIGN_PERSON_AND_ORGANIZATION_ASSIGNMENT(#62,#23,(#97));
#29=CC_DESIGN_PERSON_AND_ORGANIZATION_ASSIGNMENT(#63,#24,(#98));
#30=DATE_TIME_ROLE('creation_date');
#31=DATE_TIME_ROLE('classification_date');
#32=CC_DESIGN_DATE_AND_TIME_ASSIGNMENT(#86,#30,(#96));
#33=CC_DESIGN_DATE_AND_TIME_ASSIGNMENT(#89,#31,(#14));
#34=CC_DESIGN_APPROVAL(#93,(#96));
#35=CC_DESIGN_APPROVAL(#94,(#97));
#36=CC_DESIGN_APPROVAL(#95,(#14));
#37=APPROVAL_PERSON_ORGANIZATION(#56,#93,#64);
#38=APPROVAL_PERSON_ORGANIZATION(#58,#94,#65);
#39=APPROVAL_PERSON_ORGANIZATION(#59,#95,#66);
#40=ORGANIZATION('DEFINITION_APPROVEDBY_ORG_ID',
'DEFINITION_APPROVEDBY_ORG_NAME','DEFINITION_APPROVEDBY_ORG_DESCR');
#41=ORGANIZATION('DEF_CREATOR_ORG_ID','DEF_CREATOR_ORG_NAME',
'DEF_CREATOR_ORG_DESCR');
#42=ORGANIZATION('APPROVEDBY_ORG_ID','APPROVEDBY_ORG_NAME',
'APPROVEDBY_ORG_DESCR');
#43=ORGANIZATION('SECURITY_APPROVEDBY_ORG_ID',
'SECURITY_APPROVEDBY_ORG_NAME','SECURITY_APPROVEDBY_ORG_DESCR');
#44=ORGANIZATION('CLASSOFFICER_ORG_ID','CLASSOFFICER_ORG_NAME',
'CLASSOFFICER_ORG_DESCR');
#45=ORGANIZATION('CREATOR_ORG_ID','CREATOR_ORG_NAME',
'CREATOR_ORG_DESCR');
#46=ORGANIZATION('SUPPLIER_ORG_ID','SUPPLIER_ORG_NAME',
'SUPPLIER_ORG_DESCR');
#47=ORGANIZATION('OWNER_ORG_ID','OWNER_ORG_NAME','OWNER_ORG_DESCR');
#48=PERSON('DEFINITION_approverID','DEFINITION_APPROVEDBY_LASTNAME',
'DEFINITION_APPROVEDBY_FIRSTNAME',$,$,$);
#49=PERSON('DEF_createrID','DEF_CREATOR_LASTNAME',
'DEF_CREATOR_FIRSTNAME',$,$,$);
#50=PERSON('approverID','APPROVEDBY_LASTNAME','APPROVEDBY_FIRSTNAME',$,
$,$);
#51=PERSON('SECURITY_approverID','SECURITY_LASTNAME',
'SECURITY_APPROVEDBY_FIRSTNAME',$,$,$);
#52=PERSON('classifierID','CLASSOFFICER_LASTNAME',
'CLASSOFFICER_FIRSTNAME',$,$,$);
#53=PERSON('createrID','CREATOR_LASTNAME','CREATOR_FIRSTNAME',$,$,$);
#54=PERSON('supplierID','SUPPLIER_LASTNAME','SUPPLIER_FIRSTNAME',$,$,$);
#55=PERSON('ownerID','OWNER_LASTNAME','OWNER_FIRSTNAME',$,$,$);
#56=PERSON_AND_ORGANIZATION(#48,#40);
#57=PERSON_AND_ORGANIZATION(#49,#41);
#58=PERSON_AND_ORGANIZATION(#50,#42);
#59=PERSON_AND_ORGANIZATION(#51,#43);
#60=PERSON_AND_ORGANIZATION(#52,#44);
#61=PERSON_AND_ORGANIZATION(#53,#45);
#62=PERSON_AND_ORGANIZATION(#54,#46);
#63=PERSON_AND_ORGANIZATION(#55,#47);
#64=APPROVAL_ROLE('definition_approval');
#65=APPROVAL_ROLE('version_approval');
#66=APPROVAL_ROLE('security_approval');
#67=APPROVAL_DATE_TIME(#85,#93);
#68=APPROVAL_DATE_TIME(#87,#94);
#69=APPROVAL_DATE_TIME(#88,#95);
#70=COORDINATED_UNIVERSAL_TIME_OFFSET(5,0,.BEHIND.);
#71=COORDINATED_UNIVERSAL_TIME_OFFSET(5,0,.BEHIND.);
#72=COORDINATED_UNIVERSAL_TIME_OFFSET(5,0,.BEHIND.);
#73=COORDINATED_UNIVERSAL_TIME_OFFSET(5,0,.BEHIND.);
#74=COORDINATED_UNIVERSAL_TIME_OFFSET(5,0,.BEHIND.);
#75=LOCAL_TIME(19,10,38.,#70);
#76=LOCAL_TIME(19,10,38.,#71);
#77=LOCAL_TIME(19,10,38.,#72);
#78=LOCAL_TIME(19,10,38.,#73);
#79=LOCAL_TIME(19,10,38.,#74);
#80=CALENDAR_DATE(2018,8,10);
#81=CALENDAR_DATE(2018,8,10);
#82=CALENDAR_DATE(2018,8,10);
#83=CALENDAR_DATE(2018,8,10);
#84=CALENDAR_DATE(2018,8,10);
#85=DATE_AND_TIME(#80,#75);
#86=DATE_AND_TIME(#81,#76);
#87=DATE_AND_TIME(#82,#77);
#88=DATE_AND_TIME(#83,#78);
#89=DATE_AND_TIME(#84,#79);
#90=APPROVAL_STATUS('not_yet_approved');
#91=APPROVAL_STATUS('not_yet_approved');
#92=APPROVAL_STATUS('not_yet_approved');
#93=APPROVAL(#90,'defintion approval');
#94=APPROVAL(#91,'version approval');
#95=APPROVAL(#92,'security approval');
#96=PRODUCT_DEFINITION('DefinitionID','DefinitionDesc',#97,#19);
#97=PRODUCT_DEFINITION_FORMATION_WITH_SPECIFIED_SOURCE(
'PRODUCT_VERSION_ID','PRODUCT_VERSION_DESCR',#98,.NOT_KNOWN.);
#98=PRODUCT('ID_1','EM-3015','',(#10));
#99=(
LENGTH_UNIT()
NAMED_UNIT(*)
SI_UNIT(.MILLI.,.METRE.)
);
#100=(
NAMED_UNIT(*)
PLANE_ANGLE_UNIT()
SI_UNIT($,.RADIAN.)
);
#101=(
NAMED_UNIT(*)
SI_UNIT($,.STERADIAN.)
SOLID_ANGLE_UNIT()
);
#102=UNCERTAINTY_MEASURE_WITH_UNIT(LENGTH_MEASURE(1.E-6),#99,
'DISTANCE_ACCURACY_VALUE',
'Maximum model space distance between geometric entities at asserted c
onnectivities');
#103=(
GEOMETRIC_REPRESENTATION_CONTEXT(3)
GLOBAL_UNCERTAINTY_ASSIGNED_CONTEXT((#102))
GLOBAL_UNIT_ASSIGNED_CONTEXT((#101,#100,#99))
REPRESENTATION_CONTEXT('ID1','3D')
);
#104=VECTOR('',#370,1.);
#105=VECTOR('',#373,1.);
#106=VECTOR('',#375,1.);
#107=VECTOR('',#376,1.);
#108=VECTOR('',#377,1.);
#109=VECTOR('',#385,1.);
#110=VECTOR('',#392,1.);
#111=VECTOR('',#395,1.);
#112=VECTOR('',#397,1.);
#113=VECTOR('',#398,1.);
#114=VECTOR('',#399,1.);
#115=VECTOR('',#406,1.);
#116=LINE('',#436,#104);
#117=LINE('',#440,#105);
#118=LINE('',#442,#106);
#119=LINE('',#444,#107);
#120=LINE('',#446,#108);
#121=LINE('',#452,#109);
#122=LINE('',#459,#110);
#123=LINE('',#463,#111);
#124=LINE('',#465,#112);
#125=LINE('',#467,#113);
#126=LINE('',#469,#114);
#127=LINE('',#475,#115);
#128=PLANE('',#331);
#129=PLANE('',#335);
#130=PLANE('',#336);
#131=PLANE('',#344);
#132=PLANE('',#353);
#133=PLANE('',#357);
#134=PLANE('',#358);
#135=VERTEX_POINT('',#428);
#136=VERTEX_POINT('',#430);
#137=VERTEX_POINT('',#434);
#138=VERTEX_POINT('',#435);
#139=VERTEX_POINT('',#437);
#140=VERTEX_POINT('',#439);
#141=VERTEX_POINT('',#443);
#142=VERTEX_POINT('',#445);
#143=VERTEX_POINT('',#449);
#144=VERTEX_POINT('',#453);
#145=VERTEX_POINT('',#457);
#146=VERTEX_POINT('',#458);
#147=VERTEX_POINT('',#460);
#148=VERTEX_POINT('',#462);
#149=VERTEX_POINT('',#466);
#150=VERTEX_POINT('',#468);
#151=VERTEX_POINT('',#472);
#152=VERTEX_POINT('',#474);
#153=VERTEX_POINT('',#480);
#154=VERTEX_POINT('',#482);
#155=VERTEX_POINT('',#486);
#156=VERTEX_POINT('',#488);
#157=CIRCLE('',#329,1.25);
#158=CIRCLE('',#330,1.25);
#159=CIRCLE('',#333,0.25);
#160=CIRCLE('',#334,0.25);
#161=CIRCLE('',#337,1.125);
#162=CIRCLE('',#338,0.25);
#163=CIRCLE('',#340,0.25);
#164=CIRCLE('',#342,0.25);
#165=CIRCLE('',#343,0.25);
#166=CIRCLE('',#346,0.25);
#167=CIRCLE('',#347,0.25);
#168=CIRCLE('',#349,1.125);
#169=CIRCLE('',#351,1.4);
#170=CIRCLE('',#352,1.4);
#171=CIRCLE('',#355,1.5);
#172=CIRCLE('',#356,1.5);
#173=EDGE_CURVE('',#135,#135,#157,.T.);
#174=EDGE_CURVE('',#136,#136,#158,.T.);
#175=EDGE_CURVE('',#137,#138,#159,.T.);
#176=EDGE_CURVE('',#138,#139,#116,.T.);
#177=EDGE_CURVE('',#139,#140,#160,.F.);
#178=EDGE_CURVE('',#140,#137,#117,.T.);
#179=EDGE_CURVE('',#141,#138,#118,.T.);
#180=EDGE_CURVE('',#142,#141,#119,.T.);
#181=EDGE_CURVE('',#139,#142,#120,.T.);
#182=EDGE_CURVE('',#143,#137,#161,.T.);
#183=EDGE_CURVE('',#141,#143,#162,.T.);
#184=EDGE_CURVE('',#143,#144,#121,.T.);
#185=EDGE_CURVE('',#144,#142,#163,.F.);
#186=EDGE_CURVE('',#145,#146,#164,.T.);
#187=EDGE_CURVE('',#146,#147,#122,.T.);
#188=EDGE_CURVE('',#147,#148,#165,.F.);
#189=EDGE_CURVE('',#148,#145,#123,.T.);
#190=EDGE_CURVE('',#149,#148,#124,.T.);
#191=EDGE_CURVE('',#150,#149,#125,.T.);
#192=EDGE_CURVE('',#145,#150,#126,.T.);
#193=EDGE_CURVE('',#151,#150,#166,.T.);
#194=EDGE_CURVE('',#149,#152,#167,.F.);
#195=EDGE_CURVE('',#152,#151,#127,.T.);
#196=EDGE_CURVE('',#146,#151,#161,.T.);
#197=EDGE_CURVE('',#147,#152,#168,.T.);
#198=EDGE_CURVE('',#144,#140,#168,.T.);
#199=EDGE_CURVE('',#153,#153,#169,.T.);
#200=EDGE_CURVE('',#154,#154,#170,.T.);
#201=EDGE_CURVE('',#155,#155,#171,.T.);
#202=EDGE_CURVE('',#156,#156,#172,.T.);
#203=ORIENTED_EDGE('',*,*,#173,.T.);
#204=ORIENTED_EDGE('',*,*,#174,.F.);
#205=ORIENTED_EDGE('',*,*,#173,.F.);
#206=ORIENTED_EDGE('',*,*,#175,.T.);
#207=ORIENTED_EDGE('',*,*,#176,.T.);
#208=ORIENTED_EDGE('',*,*,#177,.T.);
#209=ORIENTED_EDGE('',*,*,#178,.T.);
#210=ORIENTED_EDGE('',*,*,#176,.F.);
#211=ORIENTED_EDGE('',*,*,#179,.F.);
#212=ORIENTED_EDGE('',*,*,#180,.F.);
#213=ORIENTED_EDGE('',*,*,#181,.F.);
#214=ORIENTED_EDGE('',*,*,#175,.F.);
#215=ORIENTED_EDGE('',*,*,#182,.F.);
#216=ORIENTED_EDGE('',*,*,#183,.F.);
#217=ORIENTED_EDGE('',*,*,#179,.T.);
#218=ORIENTED_EDGE('',*,*,#183,.T.);
#219=ORIENTED_EDGE('',*,*,#184,.T.);
#220=ORIENTED_EDGE('',*,*,#185,.T.);
#221=ORIENTED_EDGE('',*,*,#180,.T.);
#222=ORIENTED_EDGE('',*,*,#186,.T.);
#223=ORIENTED_EDGE('',*,*,#187,.T.);
#224=ORIENTED_EDGE('',*,*,#188,.T.);
#225=ORIENTED_EDGE('',*,*,#189,.T.);
#226=ORIENTED_EDGE('',*,*,#189,.F.);
#227=ORIENTED_EDGE('',*,*,#190,.F.);
#228=ORIENTED_EDGE('',*,*,#191,.F.);
#229=ORIENTED_EDGE('',*,*,#192,.F.);
#230=ORIENTED_EDGE('',*,*,#193,.T.);
#231=ORIENTED_EDGE('',*,*,#191,.T.);
#232=ORIENTED_EDGE('',*,*,#194,.T.);
#233=ORIENTED_EDGE('',*,*,#195,.T.);
#234=ORIENTED_EDGE('',*,*,#187,.F.);
#235=ORIENTED_EDGE('',*,*,#196,.T.);
#236=ORIENTED_EDGE('',*,*,#195,.F.);
#237=ORIENTED_EDGE('',*,*,#197,.F.);
#238=ORIENTED_EDGE('',*,*,#186,.F.);
#239=ORIENTED_EDGE('',*,*,#192,.T.);
#240=ORIENTED_EDGE('',*,*,#193,.F.);
#241=ORIENTED_EDGE('',*,*,#196,.F.);
#242=ORIENTED_EDGE('',*,*,#178,.F.);
#243=ORIENTED_EDGE('',*,*,#198,.F.);
#244=ORIENTED_EDGE('',*,*,#184,.F.);
#245=ORIENTED_EDGE('',*,*,#182,.T.);
#246=ORIENTED_EDGE('',*,*,#199,.F.);
#247=ORIENTED_EDGE('',*,*,#200,.F.);
#248=ORIENTED_EDGE('',*,*,#177,.F.);
#249=ORIENTED_EDGE('',*,*,#181,.T.);
#250=ORIENTED_EDGE('',*,*,#185,.F.);
#251=ORIENTED_EDGE('',*,*,#198,.T.);
#252=ORIENTED_EDGE('',*,*,#190,.T.);
#253=ORIENTED_EDGE('',*,*,#188,.F.);
#254=ORIENTED_EDGE('',*,*,#197,.T.);
#255=ORIENTED_EDGE('',*,*,#194,.F.);
#256=ORIENTED_EDGE('',*,*,#199,.T.);
#257=ORIENTED_EDGE('',*,*,#201,.T.);
#258=ORIENTED_EDGE('',*,*,#202,.T.);
#259=ORIENTED_EDGE('',*,*,#200,.T.);
#260=ORIENTED_EDGE('',*,*,#201,.F.);
#261=ORIENTED_EDGE('',*,*,#174,.T.);
#262=ORIENTED_EDGE('',*,*,#202,.F.);
#263=EDGE_LOOP('',(#203));
#264=EDGE_LOOP('',(#204));
#265=EDGE_LOOP('',(#205));
#266=EDGE_LOOP('',(#206,#207,#208,#209));
#267=EDGE_LOOP('',(#210,#211,#212,#213));
#268=EDGE_LOOP('',(#214,#215,#216,#217));
#269=EDGE_LOOP('',(#218,#219,#220,#221));
#270=EDGE_LOOP('',(#222,#223,#224,#225));
#271=EDGE_LOOP('',(#226,#227,#228,#229));
#272=EDGE_LOOP('',(#230,#231,#232,#233));
#273=EDGE_LOOP('',(#234,#235,#236,#237));
#274=EDGE_LOOP('',(#238,#239,#240,#241));
#275=EDGE_LOOP('',(#242,#243,#244,#245));
#276=EDGE_LOOP('',(#246));
#277=EDGE_LOOP('',(#247));
#278=EDGE_LOOP('',(#248,#249,#250,#251));
#279=EDGE_LOOP('',(#252,#253,#254,#255));
#280=EDGE_LOOP('',(#256));
#281=EDGE_LOOP('',(#257));
#282=EDGE_LOOP('',(#258));
#283=EDGE_LOOP('',(#259));
#284=EDGE_LOOP('',(#260));
#285=EDGE_LOOP('',(#261));
#286=EDGE_LOOP('',(#262));
#287=FACE_BOUND('',#263,.T.);
#288=FACE_BOUND('',#264,.T.);
#289=FACE_BOUND('',#265,.T.);
#290=FACE_BOUND('',#266,.T.);
#291=FACE_BOUND('',#267,.T.);
#292=FACE_BOUND('',#268,.T.);
#293=FACE_BOUND('',#269,.T.);
#294=FACE_BOUND('',#270,.T.);
#295=FACE_BOUND('',#271,.T.);
#296=FACE_BOUND('',#272,.T.);
#297=FACE_BOUND('',#273,.T.);
#298=FACE_BOUND('',#274,.T.);
#299=FACE_BOUND('',#275,.T.);
#300=FACE_BOUND('',#276,.T.);
#301=FACE_BOUND('',#277,.T.);
#302=FACE_BOUND('',#278,.T.);
#303=FACE_BOUND('',#279,.T.);
#304=FACE_BOUND('',#280,.T.);
#305=FACE_BOUND('',#281,.T.);
#306=FACE_BOUND('',#282,.T.);
#307=FACE_BOUND('',#283,.T.);
#308=FACE_BOUND('',#284,.T.);
#309=FACE_BOUND('',#285,.T.);
#310=FACE_BOUND('',#286,.T.);
#311=ADVANCED_FACE('',(#287,#288),#491,.T.);
#312=ADVANCED_FACE('',(#289),#128,.T.);
#313=ADVANCED_FACE('',(#290),#492,.T.);
#314=ADVANCED_FACE('',(#291),#129,.F.);
#315=ADVANCED_FACE('',(#292),#130,.T.);
#316=ADVANCED_FACE('',(#293),#493,.T.);
#317=ADVANCED_FACE('',(#294),#494,.T.);
#318=ADVANCED_FACE('',(#295),#131,.F.);
#319=ADVANCED_FACE('',(#296),#495,.T.);
#320=ADVANCED_FACE('',(#297),#496,.T.);
#321=ADVANCED_FACE('',(#298),#130,.T.);
#322=ADVANCED_FACE('',(#299),#496,.T.);
#323=ADVANCED_FACE('',(#300,#301),#497,.F.);
#324=ADVANCED_FACE('',(#302,#303,#304),#132,.T.);
#325=ADVANCED_FACE('',(#305,#306),#498,.T.);
#326=ADVANCED_FACE('',(#307,#308),#133,.T.);
#327=ADVANCED_FACE('',(#309,#310),#134,.F.);
#328=AXIS2_PLACEMENT_3D('',#426,#359,#360);
#329=AXIS2_PLACEMENT_3D('',#427,#361,#362);
#330=AXIS2_PLACEMENT_3D('',#429,#363,#364);
#331=AXIS2_PLACEMENT_3D('',#431,#365,$);
#332=AXIS2_PLACEMENT_3D('',#432,#366,#367);
#333=AXIS2_PLACEMENT_3D('',#433,#368,#369);
#334=AXIS2_PLACEMENT_3D('',#438,#371,#372);
#335=AXIS2_PLACEMENT_3D('',#441,#374,$);
#336=AXIS2_PLACEMENT_3D('',#447,#378,$);
#337=AXIS2_PLACEMENT_3D('',#448,#379,#380);
#338=AXIS2_PLACEMENT_3D('',#450,#381,#382);
#339=AXIS2_PLACEMENT_3D('',#451,#383,#384);
#340=AXIS2_PLACEMENT_3D('',#454,#386,#387);
#341=AXIS2_PLACEMENT_3D('',#455,#388,#389);
#342=AXIS2_PLACEMENT_3D('',#456,#390,#391);
#343=AXIS2_PLACEMENT_3D('',#461,#393,#394);
#344=AXIS2_PLACEMENT_3D('',#464,#396,$);
#345=AXIS2_PLACEMENT_3D('',#470,#400,#401);
#346=AXIS2_PLACEMENT_3D('',#471,#402,#403);
#347=AXIS2_PLACEMENT_3D('',#473,#404,#405);
#348=AXIS2_PLACEMENT_3D('',#476,#407,#408);
#349=AXIS2_PLACEMENT_3D('',#477,#409,#410);
#350=AXIS2_PLACEMENT_3D('',#478,#411,#412);
#351=AXIS2_PLACEMENT_3D('',#479,#413,#414);
#352=AXIS2_PLACEMENT_3D('',#481,#415,#416);
#353=AXIS2_PLACEMENT_3D('',#483,#417,$);
#354=AXIS2_PLACEMENT_3D('',#484,#418,#419);
#355=AXIS2_PLACEMENT_3D('',#485,#420,#421);
#356=AXIS2_PLACEMENT_3D('',#487,#422,#423);
#357=AXIS2_PLACEMENT_3D('',#489,#424,$);
#358=AXIS2_PLACEMENT_3D('',#490,#425,$);
#359=DIRECTION('',(0.,0.,-1.));
#360=DIRECTION('',(-1.25,0.,0.));
#361=DIRECTION('',(0.,0.,1.));
#362=DIRECTION('',(-1.25,0.,0.));
#363=DIRECTION('',(0.,0.,1.));
#364=DIRECTION('',(-1.25,0.,0.));
#365=DIRECTION('',(0.,0.,-1.));
#366=DIRECTION('',(0.,0.,-1.));
#367=DIRECTION('',(-0.133630620956212,-0.211288563682129,0.));
#368=DIRECTION('',(0.,0.,-1.));
#369=DIRECTION('',(-0.133630620956212,-0.211288563682129,0.));
#370=DIRECTION('',(0.,0.,-1.));
#371=DIRECTION('',(0.,0.,-1.));
#372=DIRECTION('',(-0.133630620956212,-0.211288563682129,0.));
#373=DIRECTION('',(0.,0.,1.));
#374=DIRECTION('',(1.,0.,0.));
#375=DIRECTION('',(0.,-1.,0.));
#376=DIRECTION('',(0.,0.,1.));
#377=DIRECTION('',(0.,1.,0.));
#378=DIRECTION('',(0.,0.,1.));
#379=DIRECTION('',(0.,0.,-1.));
#380=DIRECTION('',(1.125,0.,0.));
#381=DIRECTION('',(0.,0.,-1.));
#382=DIRECTION('',(-0.133630620956212,0.211288563682129,0.));
#383=DIRECTION('',(0.,0.,1.));
#384=DIRECTION('',(-0.133630620956212,0.211288563682129,0.));
#385=DIRECTION('',(0.,0.,-1.));
#386=DIRECTION('',(0.,0.,-1.));
#387=DIRECTION('',(-0.133630620956212,0.211288563682129,0.));
#388=DIRECTION('',(0.,0.,1.));
#389=DIRECTION('',(0.133630620956212,-0.211288563682129,0.));
#390=DIRECTION('',(0.,0.,-1.));
#391=DIRECTION('',(0.133630620956212,-0.211288563682129,0.));
#392=DIRECTION('',(0.,0.,-1.));
#393=DIRECTION('',(0.,0.,-1.));
#394=DIRECTION('',(0.133630620956212,-0.211288563682129,0.));
#395=DIRECTION('',(0.,0.,1.));
#396=DIRECTION('',(-1.,0.,0.));
#397=DIRECTION('',(0.,-1.,0.));
#398=DIRECTION('',(0.,0.,-1.));
#399=DIRECTION('',(0.,1.,0.));
#400=DIRECTION('',(0.,0.,-1.));
#401=DIRECTION('',(0.133630620956212,0.211288563682129,0.));
#402=DIRECTION('',(0.,0.,-1.));
#403=DIRECTION('',(0.133630620956212,0.211288563682129,0.));
#404=DIRECTION('',(0.,0.,-1.));
#405=DIRECTION('',(0.133630620956212,0.211288563682129,0.));
#406=DIRECTION('',(0.,0.,1.));
#407=DIRECTION('',(0.,0.,1.));
#408=DIRECTION('',(1.125,0.,0.));
#409=DIRECTION('',(0.,0.,-1.));
#410=DIRECTION('',(1.125,0.,0.));
#411=DIRECTION('',(0.,0.,-1.));
#412=DIRECTION('',(1.4,0.,0.));
#413=DIRECTION('',(0.,0.,1.));
#414=DIRECTION('',(1.4,0.,0.));
#415=DIRECTION('',(0.,0.,-1.));
#416=DIRECTION('',(1.4,0.,0.));
#417=DIRECTION('',(0.,0.,1.));
#418=DIRECTION('',(0.,0.,1.));
#419=DIRECTION('',(1.5,0.,0.));
#420=DIRECTION('',(0.,0.,-1.));
#421=DIRECTION('',(1.5,0.,0.));
#422=DIRECTION('',(0.,0.,1.));
#423=DIRECTION('',(1.5,0.,0.));
#424=DIRECTION('',(0.,0.,1.));
#425=DIRECTION('',(0.,0.,1.));
#426=CARTESIAN_POINT('',(0.,0.,0.));
#427=CARTESIAN_POINT('',(0.,0.,-0.1));
#428=CARTESIAN_POINT('',(-1.25,0.,-0.1));
#429=CARTESIAN_POINT('',(0.,0.,0.));
#430=CARTESIAN_POINT('',(-1.25,0.,0.));
#431=CARTESIAN_POINT('',(0.,0.,-0.1));
#432=CARTESIAN_POINT('',(0.375,-0.790569415042095,1.25));
#433=CARTESIAN_POINT('',(0.375,-0.790569415042095,1.5));
#434=CARTESIAN_POINT('',(0.482142857142857,-1.01644639076841,1.5));
#435=CARTESIAN_POINT('',(0.125,-0.790569415042095,1.5));
#436=CARTESIAN_POINT('',(0.125,-0.790569415042095,1.25));
#437=CARTESIAN_POINT('',(0.125,-0.790569415042095,1.25));
#438=CARTESIAN_POINT('',(0.375,-0.790569415042095,1.25));
#439=CARTESIAN_POINT('',(0.482142857142857,-1.01644639076841,1.25));
#440=CARTESIAN_POINT('',(0.482142857142857,-1.01644639076841,1.25));
#441=CARTESIAN_POINT('',(0.125,-0.0539133260535485,1.5));
#442=CARTESIAN_POINT('',(0.125,-0.0269566630267742,1.5));
#443=CARTESIAN_POINT('',(0.125,0.790569415042095,1.5));
#444=CARTESIAN_POINT('',(0.125,0.790569415042095,1.25));
#445=CARTESIAN_POINT('',(0.125,0.790569415042094,1.25));
#446=CARTESIAN_POINT('',(0.125,-1.28505538502209,1.25));
#447=CARTESIAN_POINT('',(0.,0.,1.5));
#448=CARTESIAN_POINT('',(0.,0.,1.5));
#449=CARTESIAN_POINT('',(0.482142857142857,1.01644639076841,1.5));
#450=CARTESIAN_POINT('',(0.375,0.790569415042095,1.5));
#451=CARTESIAN_POINT('',(0.375,0.790569415042095,1.25));
#452=CARTESIAN_POINT('',(0.482142857142857,1.01644639076841,1.25));
#453=CARTESIAN_POINT('',(0.482142857142857,1.01644639076841,1.25));
#454=CARTESIAN_POINT('',(0.375,0.790569415042095,1.25));
#455=CARTESIAN_POINT('',(-0.375,-0.790569415042095,1.25));
#456=CARTESIAN_POINT('',(-0.375,-0.790569415042095,1.5));
#457=CARTESIAN_POINT('',(-0.125,-0.790569415042094,1.5));
#458=CARTESIAN_POINT('',(-0.482142857142857,-1.01644639076841,1.5));
#459=CARTESIAN_POINT('',(-0.482142857142857,-1.01644639076841,1.25));
#460=CARTESIAN_POINT('',(-0.482142857142857,-1.01644639076841,1.25));
#461=CARTESIAN_POINT('',(-0.375,-0.790569415042095,1.25));
#462=CARTESIAN_POINT('',(-0.125,-0.790569415042095,1.25));
#463=CARTESIAN_POINT('',(-0.125,-0.790569415042095,1.25));
#464=CARTESIAN_POINT('',(-0.125,-0.0539133260535486,1.5));
#465=CARTESIAN_POINT('',(-0.125,1.177228732915,1.25));
#466=CARTESIAN_POINT('',(-0.125,0.790569415042095,1.25));
#467=CARTESIAN_POINT('',(-0.125,0.790569415042095,1.25));
#468=CARTESIAN_POINT('',(-0.125,0.790569415042095,1.5));
#469=CARTESIAN_POINT('',(-0.125,-0.0269566630267743,1.5));
#470=CARTESIAN_POINT('',(-0.375,0.790569415042095,1.25));
#471=CARTESIAN_POINT('',(-0.375,0.790569415042095,1.5));
#472=CARTESIAN_POINT('',(-0.482142857142857,1.01644639076841,1.5));
#473=CARTESIAN_POINT('',(-0.375,0.790569415042095,1.25));
#474=CARTESIAN_POINT('',(-0.482142857142857,1.01644639076841,1.25));
#475=CARTESIAN_POINT('',(-0.482142857142857,1.01644639076841,1.25));
#476=CARTESIAN_POINT('',(0.,0.,1.25));
#477=CARTESIAN_POINT('',(0.,0.,1.25));
#478=CARTESIAN_POINT('',(0.,0.,1.5));
#479=CARTESIAN_POINT('',(0.,0.,1.25));
#480=CARTESIAN_POINT('',(1.4,0.,1.25));
#481=CARTESIAN_POINT('',(0.,0.,1.5));
#482=CARTESIAN_POINT('',(1.4,0.,1.5));
#483=CARTESIAN_POINT('',(0.,0.,1.25));
#484=CARTESIAN_POINT('',(0.,0.,0.));
#485=CARTESIAN_POINT('',(0.,0.,1.5));
#486=CARTESIAN_POINT('',(1.5,0.,1.5));
#487=CARTESIAN_POINT('',(0.,0.,0.));
#488=CARTESIAN_POINT('',(1.5,0.,0.));
#489=CARTESIAN_POINT('',(0.,0.,1.5));
#490=CARTESIAN_POINT('',(0.,0.,0.));
#491=CYLINDRICAL_SURFACE('',#328,1.25);
#492=CYLINDRICAL_SURFACE('',#332,0.25);
#493=CYLINDRICAL_SURFACE('',#339,0.25);
#494=CYLINDRICAL_SURFACE('',#341,0.25);
#495=CYLINDRICAL_SURFACE('',#345,0.25);
#496=CYLINDRICAL_SURFACE('',#348,1.125);
#497=CYLINDRICAL_SURFACE('',#350,1.4);
#498=CYLINDRICAL_SURFACE('',#354,1.5);
#499=CLOSED_SHELL('',(#311,#312,#313,#314,#315,#316,#317,#318,#319,#320,
#321,#322,#323,#324,#325,#326,#327));
#500=MANIFOLD_SOLID_BREP('',#499);
#501=ADVANCED_BREP_SHAPE_REPRESENTATION('',(#500),#103);
ENDSEC;
END-ISO-10303-21;
