ISO-10303-21;
HEADER;
/* Generated by software containing ST-Developer
 * from STEP Tools, Inc. (www.steptools.com) 
 */

FILE_DESCRIPTION(
/* description */ ('Alibre Inc.'),
/* implementation_level */ '2;1');

FILE_NAME(
/* name */ 'export0',
/* time_stamp */ '2018-08-04T10:47:15-05:00',
/* author */ (''),
/* organization */ (''),
/* preprocessor_version */ 'ST-DEVELOPER v17',
/* originating_system */ 'Alibre',
/* authorisation */ '');

FILE_SCHEMA (('CONFIG_CONTROL_DESIGN'));
ENDSEC;

DATA;
#10=MECHANICAL_CONTEXT('detailed design',#18,'mechanical');
#11=PRODUCT_RELATED_PRODUCT_CATEGORY('detail','',(#98));
#12=CC_DESIGN_SECURITY_CLASSIFICATION(#14,(#97));
#13=SECURITY_CLASSIFICATION_LEVEL('unclassified');
#14=SECURITY_CLASSIFICATION('name','Security for version',#13);
#15=SHAPE_DEFINITION_REPRESENTATION(#16,#483);
#16=PRODUCT_DEFINITION_SHAPE('','DefinitionDesc',#96);
#17=APPLICATION_PROTOCOL_DEFINITION('AP definition status',
'config_control_design',1994,#18);
#18=APPLICATION_CONTEXT(
'control the configuration of three dimensional design');
#19=DESIGN_CONTEXT('detailed design',#18,'design');
#20=PERSON_AND_ORGANIZATION_ROLE('creator');
#21=PERSON_AND_ORGANIZATION_ROLE('classification_officer');
#22=PERSON_AND_ORGANIZATION_ROLE('creator');
#23=PERSON_AND_ORGANIZATION_ROLE('design_supplier');
#24=PERSON_AND_ORGANIZATION_ROLE('design_owner');
#25=CC_DESIGN_PERSON_AND_ORGANIZATION_ASSIGNMENT(#57,#20,(#96));
#26=CC_DESIGN_PERSON_AND_ORGANIZATION_ASSIGNMENT(#60,#21,(#14));
#27=CC_DESIGN_PERSON_AND_ORGANIZATION_ASSIGNMENT(#61,#22,(#97));
#28=CC_DESIGN_PERSON_AND_ORGANIZATION_ASSIGNMENT(#62,#23,(#97));
#29=CC_DESIGN_PERSON_AND_ORGANIZATION_ASSIGNMENT(#63,#24,(#98));
#30=DATE_TIME_ROLE('creation_date');
#31=DATE_TIME_ROLE('classification_date');
#32=CC_DESIGN_DATE_AND_TIME_ASSIGNMENT(#86,#30,(#96));
#33=CC_DESIGN_DATE_AND_TIME_ASSIGNMENT(#89,#31,(#14));
#34=CC_DESIGN_APPROVAL(#93,(#96));
#35=CC_DESIGN_APPROVAL(#94,(#97));
#36=CC_DESIGN_APPROVAL(#95,(#14));
#37=APPROVAL_PERSON_ORGANIZATION(#56,#93,#64);
#38=APPROVAL_PERSON_ORGANIZATION(#58,#94,#65);
#39=APPROVAL_PERSON_ORGANIZATION(#59,#95,#66);
#40=ORGANIZATION('DEFINITION_APPROVEDBY_ORG_ID',
'DEFINITION_APPROVEDBY_ORG_NAME','DEFINITION_APPROVEDBY_ORG_DESCR');
#41=ORGANIZATION('DEF_CREATOR_ORG_ID','DEF_CREATOR_ORG_NAME',
'DEF_CREATOR_ORG_DESCR');
#42=ORGANIZATION('APPROVEDBY_ORG_ID','APPROVEDBY_ORG_NAME',
'APPROVEDBY_ORG_DESCR');
#43=ORGANIZATION('SECURITY_APPROVEDBY_ORG_ID',
'SECURITY_APPROVEDBY_ORG_NAME','SECURITY_APPROVEDBY_ORG_DESCR');
#44=ORGANIZATION('CLASSOFFICER_ORG_ID','CLASSOFFICER_ORG_NAME',
'CLASSOFFICER_ORG_DESCR');
#45=ORGANIZATION('CREATOR_ORG_ID','CREATOR_ORG_NAME',
'CREATOR_ORG_DESCR');
#46=ORGANIZATION('SUPPLIER_ORG_ID','SUPPLIER_ORG_NAME',
'SUPPLIER_ORG_DESCR');
#47=ORGANIZATION('OWNER_ORG_ID','OWNER_ORG_NAME','OWNER_ORG_DESCR');
#48=PERSON('DEFINITION_approverID','DEFINITION_APPROVEDBY_LASTNAME',
'DEFINITION_APPROVEDBY_FIRSTNAME',$,$,$);
#49=PERSON('DEF_createrID','DEF_CREATOR_LASTNAME',
'DEF_CREATOR_FIRSTNAME',$,$,$);
#50=PERSON('approverID','APPROVEDBY_LASTNAME','APPROVEDBY_FIRSTNAME',$,
$,$);
#51=PERSON('SECURITY_approverID','SECURITY_LASTNAME',
'SECURITY_APPROVEDBY_FIRSTNAME',$,$,$);
#52=PERSON('classifierID','CLASSOFFICER_LASTNAME',
'CLASSOFFICER_FIRSTNAME',$,$,$);
#53=PERSON('createrID','CREATOR_LASTNAME','CREATOR_FIRSTNAME',$,$,$);
#54=PERSON('supplierID','SUPPLIER_LASTNAME','SUPPLIER_FIRSTNAME',$,$,$);
#55=PERSON('ownerID','OWNER_LASTNAME','OWNER_FIRSTNAME',$,$,$);
#56=PERSON_AND_ORGANIZATION(#48,#40);
#57=PERSON_AND_ORGANIZATION(#49,#41);
#58=PERSON_AND_ORGANIZATION(#50,#42);
#59=PERSON_AND_ORGANIZATION(#51,#43);
#60=PERSON_AND_ORGANIZATION(#52,#44);
#61=PERSON_AND_ORGANIZATION(#53,#45);
#62=PERSON_AND_ORGANIZATION(#54,#46);
#63=PERSON_AND_ORGANIZATION(#55,#47);
#64=APPROVAL_ROLE('definition_approval');
#65=APPROVAL_ROLE('version_approval');
#66=APPROVAL_ROLE('security_approval');
#67=APPROVAL_DATE_TIME(#85,#93);
#68=APPROVAL_DATE_TIME(#87,#94);
#69=APPROVAL_DATE_TIME(#88,#95);
#70=COORDINATED_UNIVERSAL_TIME_OFFSET(5,0,.BEHIND.);
#71=COORDINATED_UNIVERSAL_TIME_OFFSET(5,0,.BEHIND.);
#72=COORDINATED_UNIVERSAL_TIME_OFFSET(5,0,.BEHIND.);
#73=COORDINATED_UNIVERSAL_TIME_OFFSET(5,0,.BEHIND.);
#74=COORDINATED_UNIVERSAL_TIME_OFFSET(5,0,.BEHIND.);
#75=LOCAL_TIME(10,41,30.,#70);
#76=LOCAL_TIME(10,41,30.,#71);
#77=LOCAL_TIME(10,41,30.,#72);
#78=LOCAL_TIME(10,41,30.,#73);
#79=LOCAL_TIME(10,41,30.,#74);
#80=CALENDAR_DATE(2018,4,8);
#81=CALENDAR_DATE(2018,4,8);
#82=CALENDAR_DATE(2018,4,8);
#83=CALENDAR_DATE(2018,4,8);
#84=CALENDAR_DATE(2018,4,8);
#85=DATE_AND_TIME(#80,#75);
#86=DATE_AND_TIME(#81,#76);
#87=DATE_AND_TIME(#82,#77);
#88=DATE_AND_TIME(#83,#78);
#89=DATE_AND_TIME(#84,#79);
#90=APPROVAL_STATUS('not_yet_approved');
#91=APPROVAL_STATUS('not_yet_approved');
#92=APPROVAL_STATUS('not_yet_approved');
#93=APPROVAL(#90,'defintion approval');
#94=APPROVAL(#91,'version approval');
#95=APPROVAL(#92,'security approval');
#96=PRODUCT_DEFINITION('DefinitionID','DefinitionDesc',#97,#19);
#97=PRODUCT_DEFINITION_FORMATION_WITH_SPECIFIED_SOURCE(
'PRODUCT_VERSION_ID','PRODUCT_VERSION_DESCR',#98,.NOT_KNOWN.);
#98=PRODUCT('ID_1','WST-1212BX','',(#10));
#99=(
LENGTH_UNIT()
NAMED_UNIT(*)
SI_UNIT(.CENTI.,.METRE.)
);
#100=(
NAMED_UNIT(*)
PLANE_ANGLE_UNIT()
SI_UNIT($,.RADIAN.)
);
#101=(
NAMED_UNIT(*)
SI_UNIT($,.STERADIAN.)
SOLID_ANGLE_UNIT()
);
#102=UNCERTAINTY_MEASURE_WITH_UNIT(LENGTH_MEASURE(1.E-6),#99,
'DISTANCE_ACCURACY_VALUE',
'Maximum model space distance between geometric entities at asserted c
onnectivities');
#103=(
GEOMETRIC_REPRESENTATION_CONTEXT(3)
GLOBAL_UNCERTAINTY_ASSIGNED_CONTEXT((#102))
GLOBAL_UNIT_ASSIGNED_CONTEXT((#101,#100,#99))
REPRESENTATION_CONTEXT('ID1','3D')
);
#104=VECTOR('',#373,1.);
#105=VECTOR('',#374,1.);
#106=VECTOR('',#375,1.);
#107=VECTOR('',#376,1.);
#108=VECTOR('',#377,1.);
#109=VECTOR('',#378,1.);
#110=VECTOR('',#379,1.);
#111=VECTOR('',#381,1.);
#112=VECTOR('',#382,1.);
#113=VECTOR('',#383,1.);
#114=VECTOR('',#384,1.);
#115=VECTOR('',#385,1.);
#116=VECTOR('',#386,1.);
#117=VECTOR('',#387,1.);
#118=LINE('',#427,#104);
#119=LINE('',#430,#105);
#120=LINE('',#432,#106);
#121=LINE('',#434,#107);
#122=LINE('',#435,#108);
#123=LINE('',#439,#109);
#124=LINE('',#441,#110);
#125=LINE('',#443,#111);
#126=LINE('',#446,#112);
#127=LINE('',#448,#113);
#128=LINE('',#450,#114);
#129=LINE('',#451,#115);
#130=LINE('',#454,#116);
#131=LINE('',#456,#117);
#132=PLANE('',#336);
#133=PLANE('',#340);
#134=PLANE('',#341);
#135=PLANE('',#342);
#136=PLANE('',#343);
#137=PLANE('',#349);
#138=PLANE('',#354);
#139=PLANE('',#357);
#140=VERTEX_POINT('',#416);
#141=VERTEX_POINT('',#418);
#142=VERTEX_POINT('',#422);
#143=VERTEX_POINT('',#424);
#144=VERTEX_POINT('',#428);
#145=VERTEX_POINT('',#429);
#146=VERTEX_POINT('',#431);
#147=VERTEX_POINT('',#433);
#148=VERTEX_POINT('',#436);
#149=VERTEX_POINT('',#437);
#150=VERTEX_POINT('',#438);
#151=VERTEX_POINT('',#440);
#152=VERTEX_POINT('',#444);
#153=VERTEX_POINT('',#445);
#154=VERTEX_POINT('',#447);
#155=VERTEX_POINT('',#449);
#156=VERTEX_POINT('',#452);
#157=VERTEX_POINT('',#453);
#158=VERTEX_POINT('',#455);
#159=VERTEX_POINT('',#457);
#160=VERTEX_POINT('',#468);
#161=VERTEX_POINT('',#470);
#162=VERTEX_POINT('',#474);
#163=CIRCLE('',#334,0.03);
#164=CIRCLE('',#335,0.03);
#165=CIRCLE('',#338,0.03);
#166=CIRCLE('',#339,0.03);
#167=CIRCLE('',#344,0.575);
#168=CIRCLE('',#345,0.6);
#169=CIRCLE('',#346,0.6);
#170=CIRCLE('',#348,0.575);
#171=CIRCLE('',#350,0.6);
#172=CIRCLE('',#352,0.115);
#173=CIRCLE('',#353,0.115);
#174=CIRCLE('',#356,0.6);
#175=EDGE_CURVE('',#140,#140,#163,.T.);
#176=EDGE_CURVE('',#141,#141,#164,.T.);
#177=EDGE_CURVE('',#142,#142,#165,.T.);
#178=EDGE_CURVE('',#143,#143,#166,.T.);
#179=EDGE_CURVE('',#144,#145,#118,.T.);
#180=EDGE_CURVE('',#146,#144,#119,.T.);
#181=EDGE_CURVE('',#147,#146,#120,.T.);
#182=EDGE_CURVE('',#145,#147,#121,.T.);
#183=EDGE_CURVE('',#148,#149,#122,.T.);
#184=EDGE_CURVE('',#150,#148,#119,.T.);
#185=EDGE_CURVE('',#151,#150,#123,.T.);
#186=EDGE_CURVE('',#149,#151,#124,.T.);
#187=EDGE_CURVE('',#152,#153,#125,.T.);
#188=EDGE_CURVE('',#154,#152,#126,.T.);
#189=EDGE_CURVE('',#155,#154,#127,.T.);
#190=EDGE_CURVE('',#153,#155,#128,.T.);
#191=EDGE_CURVE('',#156,#157,#129,.T.);
#192=EDGE_CURVE('',#158,#156,#130,.T.);
#193=EDGE_CURVE('',#159,#158,#131,.T.);
#194=EDGE_CURVE('',#157,#159,#128,.T.);
#195=EDGE_CURVE('',#144,#150,#167,.T.);
#196=EDGE_CURVE('',#157,#148,#168,.T.);
#197=EDGE_CURVE('',#159,#153,#167,.T.);
#198=EDGE_CURVE('',#146,#155,#169,.T.);
#199=EDGE_CURVE('',#152,#158,#170,.T.);
#200=EDGE_CURVE('',#151,#145,#170,.T.);
#201=EDGE_CURVE('',#154,#156,#171,.T.);
#202=EDGE_CURVE('',#149,#147,#171,.T.);
#203=EDGE_CURVE('',#160,#160,#172,.T.);
#204=EDGE_CURVE('',#161,#161,#173,.T.);
#205=EDGE_CURVE('',#162,#162,#174,.T.);
#206=ORIENTED_EDGE('',*,*,#175,.T.);
#207=ORIENTED_EDGE('',*,*,#176,.F.);
#208=ORIENTED_EDGE('',*,*,#175,.F.);
#209=ORIENTED_EDGE('',*,*,#177,.T.);
#210=ORIENTED_EDGE('',*,*,#178,.F.);
#211=ORIENTED_EDGE('',*,*,#177,.F.);
#212=ORIENTED_EDGE('',*,*,#179,.F.);
#213=ORIENTED_EDGE('',*,*,#180,.F.);
#214=ORIENTED_EDGE('',*,*,#181,.F.);
#215=ORIENTED_EDGE('',*,*,#182,.F.);
#216=ORIENTED_EDGE('',*,*,#183,.F.);
#217=ORIENTED_EDGE('',*,*,#184,.F.);
#218=ORIENTED_EDGE('',*,*,#185,.F.);
#219=ORIENTED_EDGE('',*,*,#186,.F.);
#220=ORIENTED_EDGE('',*,*,#187,.F.);
#221=ORIENTED_EDGE('',*,*,#188,.F.);
#222=ORIENTED_EDGE('',*,*,#189,.F.);
#223=ORIENTED_EDGE('',*,*,#190,.F.);
#224=ORIENTED_EDGE('',*,*,#191,.F.);
#225=ORIENTED_EDGE('',*,*,#192,.F.);
#226=ORIENTED_EDGE('',*,*,#193,.F.);
#227=ORIENTED_EDGE('',*,*,#194,.F.);
#228=ORIENTED_EDGE('',*,*,#176,.T.);
#229=ORIENTED_EDGE('',*,*,#178,.T.);
#230=ORIENTED_EDGE('',*,*,#195,.T.);
#231=ORIENTED_EDGE('',*,*,#184,.T.);
#232=ORIENTED_EDGE('',*,*,#196,.F.);
#233=ORIENTED_EDGE('',*,*,#194,.T.);
#234=ORIENTED_EDGE('',*,*,#197,.T.);
#235=ORIENTED_EDGE('',*,*,#190,.T.);
#236=ORIENTED_EDGE('',*,*,#198,.F.);
#237=ORIENTED_EDGE('',*,*,#180,.T.);
#238=ORIENTED_EDGE('',*,*,#193,.T.);
#239=ORIENTED_EDGE('',*,*,#199,.F.);
#240=ORIENTED_EDGE('',*,*,#187,.T.);
#241=ORIENTED_EDGE('',*,*,#197,.F.);
#242=ORIENTED_EDGE('',*,*,#185,.T.);
#243=ORIENTED_EDGE('',*,*,#195,.F.);
#244=ORIENTED_EDGE('',*,*,#179,.T.);
#245=ORIENTED_EDGE('',*,*,#200,.F.);
#246=ORIENTED_EDGE('',*,*,#192,.T.);
#247=ORIENTED_EDGE('',*,*,#201,.F.);
#248=ORIENTED_EDGE('',*,*,#188,.T.);
#249=ORIENTED_EDGE('',*,*,#199,.T.);
#250=ORIENTED_EDGE('',*,*,#186,.T.);
#251=ORIENTED_EDGE('',*,*,#200,.T.);
#252=ORIENTED_EDGE('',*,*,#182,.T.);
#253=ORIENTED_EDGE('',*,*,#202,.F.);
#254=ORIENTED_EDGE('',*,*,#203,.F.);
#255=ORIENTED_EDGE('',*,*,#204,.F.);
#256=ORIENTED_EDGE('',*,*,#203,.T.);
#257=ORIENTED_EDGE('',*,*,#183,.T.);
#258=ORIENTED_EDGE('',*,*,#202,.T.);
#259=ORIENTED_EDGE('',*,*,#181,.T.);
#260=ORIENTED_EDGE('',*,*,#198,.T.);
#261=ORIENTED_EDGE('',*,*,#189,.T.);
#262=ORIENTED_EDGE('',*,*,#201,.T.);
#263=ORIENTED_EDGE('',*,*,#191,.T.);
#264=ORIENTED_EDGE('',*,*,#196,.T.);
#265=ORIENTED_EDGE('',*,*,#205,.T.);
#266=ORIENTED_EDGE('',*,*,#204,.T.);
#267=ORIENTED_EDGE('',*,*,#205,.F.);
#268=EDGE_LOOP('',(#206));
#269=EDGE_LOOP('',(#207));
#270=EDGE_LOOP('',(#208));
#271=EDGE_LOOP('',(#209));
#272=EDGE_LOOP('',(#210));
#273=EDGE_LOOP('',(#211));
#274=EDGE_LOOP('',(#212,#213,#214,#215));
#275=EDGE_LOOP('',(#216,#217,#218,#219));
#276=EDGE_LOOP('',(#220,#221,#222,#223));
#277=EDGE_LOOP('',(#224,#225,#226,#227));
#278=EDGE_LOOP('',(#228));
#279=EDGE_LOOP('',(#229));
#280=EDGE_LOOP('',(#230,#231,#232,#233,#234,#235,#236,#237));
#281=EDGE_LOOP('',(#238,#239,#240,#241));
#282=EDGE_LOOP('',(#242,#243,#244,#245));
#283=EDGE_LOOP('',(#246,#247,#248,#249));
#284=EDGE_LOOP('',(#250,#251,#252,#253));
#285=EDGE_LOOP('',(#254));
#286=EDGE_LOOP('',(#255));
#287=EDGE_LOOP('',(#256));
#288=EDGE_LOOP('',(#257,#258,#259,#260,#261,#262,#263,#264));
#289=EDGE_LOOP('',(#265));
#290=EDGE_LOOP('',(#266));
#291=EDGE_LOOP('',(#267));
#292=FACE_BOUND('',#268,.T.);
#293=FACE_BOUND('',#269,.T.);
#294=FACE_BOUND('',#270,.T.);
#295=FACE_BOUND('',#271,.T.);
#296=FACE_BOUND('',#272,.T.);
#297=FACE_BOUND('',#273,.T.);
#298=FACE_BOUND('',#274,.T.);
#299=FACE_BOUND('',#275,.T.);
#300=FACE_BOUND('',#276,.T.);
#301=FACE_BOUND('',#277,.T.);
#302=FACE_BOUND('',#278,.T.);
#303=FACE_BOUND('',#279,.T.);
#304=FACE_BOUND('',#280,.T.);
#305=FACE_BOUND('',#281,.T.);
#306=FACE_BOUND('',#282,.T.);
#307=FACE_BOUND('',#283,.T.);
#308=FACE_BOUND('',#284,.T.);
#309=FACE_BOUND('',#285,.T.);
#310=FACE_BOUND('',#286,.T.);
#311=FACE_BOUND('',#287,.T.);
#312=FACE_BOUND('',#288,.T.);
#313=FACE_BOUND('',#289,.T.);
#314=FACE_BOUND('',#290,.T.);
#315=FACE_BOUND('',#291,.T.);
#316=ADVANCED_FACE('',(#292,#293),#476,.T.);
#317=ADVANCED_FACE('',(#294),#132,.T.);
#318=ADVANCED_FACE('',(#295,#296),#477,.T.);
#319=ADVANCED_FACE('',(#297),#133,.T.);
#320=ADVANCED_FACE('',(#298),#134,.F.);
#321=ADVANCED_FACE('',(#299),#134,.F.);
#322=ADVANCED_FACE('',(#300),#135,.F.);
#323=ADVANCED_FACE('',(#301),#135,.F.);
#324=ADVANCED_FACE('',(#302,#303,#304),#136,.T.);
#325=ADVANCED_FACE('',(#305),#478,.F.);
#326=ADVANCED_FACE('',(#306),#478,.F.);
#327=ADVANCED_FACE('',(#307),#137,.F.);
#328=ADVANCED_FACE('',(#308),#137,.F.);
#329=ADVANCED_FACE('',(#309,#310),#479,.F.);
#330=ADVANCED_FACE('',(#311),#138,.T.);
#331=ADVANCED_FACE('',(#312,#313),#480,.T.);
#332=ADVANCED_FACE('',(#314,#315),#139,.T.);
#333=AXIS2_PLACEMENT_3D('',#414,#358,#359);
#334=AXIS2_PLACEMENT_3D('',#415,#360,#361);
#335=AXIS2_PLACEMENT_3D('',#417,#362,#363);
#336=AXIS2_PLACEMENT_3D('',#419,#364,$);
#337=AXIS2_PLACEMENT_3D('',#420,#365,#366);
#338=AXIS2_PLACEMENT_3D('',#421,#367,#368);
#339=AXIS2_PLACEMENT_3D('',#423,#369,#370);
#340=AXIS2_PLACEMENT_3D('',#425,#371,$);
#341=AXIS2_PLACEMENT_3D('',#426,#372,$);
#342=AXIS2_PLACEMENT_3D('',#442,#380,$);
#343=AXIS2_PLACEMENT_3D('',#458,#388,$);
#344=AXIS2_PLACEMENT_3D('',#459,#389,#390);
#345=AXIS2_PLACEMENT_3D('',#460,#391,#392);
#346=AXIS2_PLACEMENT_3D('',#461,#393,#394);
#347=AXIS2_PLACEMENT_3D('',#462,#395,#396);
#348=AXIS2_PLACEMENT_3D('',#463,#397,#398);
#349=AXIS2_PLACEMENT_3D('',#464,#399,$);
#350=AXIS2_PLACEMENT_3D('',#465,#400,#401);
#351=AXIS2_PLACEMENT_3D('',#466,#402,#403);
#352=AXIS2_PLACEMENT_3D('',#467,#404,#405);
#353=AXIS2_PLACEMENT_3D('',#469,#406,#407);
#354=AXIS2_PLACEMENT_3D('',#471,#408,$);
#355=AXIS2_PLACEMENT_3D('',#472,#409,#410);
#356=AXIS2_PLACEMENT_3D('',#473,#411,#412);
#357=AXIS2_PLACEMENT_3D('',#475,#413,$);
#358=DIRECTION('',(0.,0.,-1.));
#359=DIRECTION('',(0.03,-3.67381906146713E-18,0.));
#360=DIRECTION('',(0.,0.,1.));
#361=DIRECTION('',(0.03,-3.67381906146713E-18,0.));
#362=DIRECTION('',(0.,0.,1.));
#363=DIRECTION('',(0.03,-3.67381906146713E-18,0.));
#364=DIRECTION('',(0.,0.,-1.));
#365=DIRECTION('',(0.,0.,-1.));
#366=DIRECTION('',(-0.03,0.,0.));
#367=DIRECTION('',(0.,0.,1.));
#368=DIRECTION('',(-0.03,0.,0.));
#369=DIRECTION('',(0.,0.,1.));
#370=DIRECTION('',(-0.03,0.,0.));
#371=DIRECTION('',(0.,0.,-1.));
#372=DIRECTION('',(-1.,1.27960569545904E-16,0.));
#373=DIRECTION('',(0.,0.,-1.));
#374=DIRECTION('',(1.27960569545904E-16,1.,0.));
#375=DIRECTION('',(0.,0.,1.));
#376=DIRECTION('',(-1.27960569545904E-16,-1.,0.));
#377=DIRECTION('',(0.,0.,-1.));
#378=DIRECTION('',(0.,0.,1.));
#379=DIRECTION('',(-1.27960569545904E-16,-1.,0.));
#380=DIRECTION('',(1.,0.,0.));
#381=DIRECTION('',(0.,0.,1.));
#382=DIRECTION('',(0.,1.,0.));
#383=DIRECTION('',(0.,0.,-1.));
#384=DIRECTION('',(0.,-1.,0.));
#385=DIRECTION('',(0.,0.,1.));
#386=DIRECTION('',(0.,1.,0.));
#387=DIRECTION('',(0.,0.,-1.));
#388=DIRECTION('',(0.,0.,-1.));
#389=DIRECTION('',(0.,0.,-1.));
#390=DIRECTION('',(-0.575,0.,0.));
#391=DIRECTION('',(0.,0.,1.));
#392=DIRECTION('',(0.6,0.,0.));
#393=DIRECTION('',(0.,0.,1.));
#394=DIRECTION('',(0.6,0.,0.));
#395=DIRECTION('',(0.,0.,1.));
#396=DIRECTION('',(-0.575,0.,0.));
#397=DIRECTION('',(0.,0.,1.));
#398=DIRECTION('',(-0.575,0.,0.));
#399=DIRECTION('',(0.,0.,1.));
#400=DIRECTION('',(0.,0.,1.));
#401=DIRECTION('',(0.6,0.,0.));
#402=DIRECTION('',(0.,0.,-1.));
#403=DIRECTION('',(0.115,0.,0.));
#404=DIRECTION('',(0.,0.,1.));
#405=DIRECTION('',(0.115,0.,0.));
#406=DIRECTION('',(0.,0.,-1.));
#407=DIRECTION('',(0.115,0.,0.));
#408=DIRECTION('',(0.,0.,1.));
#409=DIRECTION('',(0.,0.,1.));
#410=DIRECTION('',(0.6,0.,0.));
#411=DIRECTION('',(0.,0.,-1.));
#412=DIRECTION('',(0.6,0.,0.));
#413=DIRECTION('',(0.,0.,1.));
#414=CARTESIAN_POINT('',(-0.38,4.65350414452503E-17,0.05));
#415=CARTESIAN_POINT('',(-0.38,4.65350414452503E-17,-0.65));
#416=CARTESIAN_POINT('',(-0.35,4.28612223837832E-17,-0.65));
#417=CARTESIAN_POINT('',(-0.38,4.65350414452503E-17,0.05));
#418=CARTESIAN_POINT('',(-0.35,4.28612223837832E-17,0.05));
#419=CARTESIAN_POINT('',(-0.38,4.65350414452503E-17,-0.65));
#420=CARTESIAN_POINT('',(0.38,0.,0.05));
#421=CARTESIAN_POINT('',(0.38,0.,-0.65));
#422=CARTESIAN_POINT('',(0.35,0.,-0.65));
#423=CARTESIAN_POINT('',(0.38,0.,0.05));
#424=CARTESIAN_POINT('',(0.35,0.,0.05));
#425=CARTESIAN_POINT('',(0.38,0.,-0.65));
#426=CARTESIAN_POINT('',(-0.325,0.00824740529060375,0.));
#427=CARTESIAN_POINT('',(-0.325,-0.474341649025257,0.025));
#428=CARTESIAN_POINT('',(-0.325,-0.474341649025257,0.05));
#429=CARTESIAN_POINT('',(-0.325,-0.474341649025257,0.));
#430=CARTESIAN_POINT('',(-0.325,-0.642474353313446,0.05));
#431=CARTESIAN_POINT('',(-0.325,-0.5043560250458,0.05));
#432=CARTESIAN_POINT('',(-0.325,-0.5043560250458,0.025));
#433=CARTESIAN_POINT('',(-0.325,-0.5043560250458,0.));
#434=CARTESIAN_POINT('',(-0.325,0.0041237026453019,0.));
#435=CARTESIAN_POINT('',(-0.325,0.5043560250458,0.025));
#436=CARTESIAN_POINT('',(-0.325,0.5043560250458,0.05));
#437=CARTESIAN_POINT('',(-0.325,0.5043560250458,0.));
#438=CARTESIAN_POINT('',(-0.325,0.474341649025257,0.05));
#439=CARTESIAN_POINT('',(-0.325,0.474341649025257,0.025));
#440=CARTESIAN_POINT('',(-0.325,0.474341649025257,0.));
#441=CARTESIAN_POINT('',(-0.325,0.0041237026453019,0.));
#442=CARTESIAN_POINT('',(0.325,0.00824740529060364,0.));
#443=CARTESIAN_POINT('',(0.325,-0.474341649025257,0.025));
#444=CARTESIAN_POINT('',(0.325,-0.474341649025257,0.));
#445=CARTESIAN_POINT('',(0.325,-0.474341649025257,0.05));
#446=CARTESIAN_POINT('',(0.325,0.00412370264530182,0.));
#447=CARTESIAN_POINT('',(0.325,-0.5043560250458,0.));
#448=CARTESIAN_POINT('',(0.325,-0.5043560250458,0.025));
#449=CARTESIAN_POINT('',(0.325,-0.5043560250458,0.05));
#450=CARTESIAN_POINT('',(0.325,0.658969163894653,0.05));
#451=CARTESIAN_POINT('',(0.325,0.5043560250458,0.025));
#452=CARTESIAN_POINT('',(0.325,0.5043560250458,0.));
#453=CARTESIAN_POINT('',(0.325,0.5043560250458,0.05));
#454=CARTESIAN_POINT('',(0.325,0.00412370264530182,0.));
#455=CARTESIAN_POINT('',(0.325,0.474341649025257,0.));
#456=CARTESIAN_POINT('',(0.325,0.474341649025257,0.025));
#457=CARTESIAN_POINT('',(0.325,0.474341649025257,0.05));
#458=CARTESIAN_POINT('',(0.,0.,0.05));
#459=CARTESIAN_POINT('',(0.,0.,0.05));
#460=CARTESIAN_POINT('',(0.,0.,0.05));
#461=CARTESIAN_POINT('',(0.,0.,0.05));
#462=CARTESIAN_POINT('',(0.,0.,0.));
#463=CARTESIAN_POINT('',(0.,0.,0.));
#464=CARTESIAN_POINT('',(0.,0.,0.));
#465=CARTESIAN_POINT('',(0.,0.,0.));
#466=CARTESIAN_POINT('',(0.,0.,0.75));
#467=CARTESIAN_POINT('',(0.,0.,0.65));
#468=CARTESIAN_POINT('',(0.115,0.,0.65));
#469=CARTESIAN_POINT('',(0.,0.,0.75));
#470=CARTESIAN_POINT('',(0.115,0.,0.75));
#471=CARTESIAN_POINT('',(0.,0.,0.65));
#472=CARTESIAN_POINT('',(0.,0.,0.));
#473=CARTESIAN_POINT('',(0.,0.,0.75));
#474=CARTESIAN_POINT('',(0.6,0.,0.75));
#475=CARTESIAN_POINT('',(0.,0.,0.75));
#476=CYLINDRICAL_SURFACE('',#333,0.03);
#477=CYLINDRICAL_SURFACE('',#337,0.03);
#478=CYLINDRICAL_SURFACE('',#347,0.575);
#479=CYLINDRICAL_SURFACE('',#351,0.115);
#480=CYLINDRICAL_SURFACE('',#355,0.6);
#481=CLOSED_SHELL('',(#316,#317,#318,#319,#320,#321,#322,#323,#324,#325,
#326,#327,#328,#329,#330,#331,#332));
#482=MANIFOLD_SOLID_BREP('',#481);
#483=ADVANCED_BREP_SHAPE_REPRESENTATION('',(#482),#103);
ENDSEC;
END-ISO-10303-21;
