ISO-10303-21;
HEADER;
/* Generated by software containing ST-Developer
 * from STEP Tools, Inc. (www.steptools.com) 
 */

FILE_DESCRIPTION(
/* description */ ('Alibre Inc.'),
/* implementation_level */ '2;1');

FILE_NAME(
/* name */ 'export0',
/* time_stamp */ '2018-08-21T06:34:46-05:00',
/* author */ (''),
/* organization */ (''),
/* preprocessor_version */ 'ST-DEVELOPER v17',
/* originating_system */ 'Alibre',
/* authorisation */ '');

FILE_SCHEMA (('CONFIG_CONTROL_DESIGN'));
ENDSEC;

DATA;
#10=MECHANICAL_CONTEXT('detailed design',#18,'mechanical');
#11=PRODUCT_RELATED_PRODUCT_CATEGORY('detail','',(#98));
#12=CC_DESIGN_SECURITY_CLASSIFICATION(#14,(#97));
#13=SECURITY_CLASSIFICATION_LEVEL('unclassified');
#14=SECURITY_CLASSIFICATION('name','Security for version',#13);
#15=SHAPE_DEFINITION_REPRESENTATION(#16,#700);
#16=PRODUCT_DEFINITION_SHAPE('','DefinitionDesc',#96);
#17=APPLICATION_PROTOCOL_DEFINITION('AP definition status',
'config_control_design',1994,#18);
#18=APPLICATION_CONTEXT(
'control the configuration of three dimensional design');
#19=DESIGN_CONTEXT('detailed design',#18,'design');
#20=PERSON_AND_ORGANIZATION_ROLE('creator');
#21=PERSON_AND_ORGANIZATION_ROLE('classification_officer');
#22=PERSON_AND_ORGANIZATION_ROLE('creator');
#23=PERSON_AND_ORGANIZATION_ROLE('design_supplier');
#24=PERSON_AND_ORGANIZATION_ROLE('design_owner');
#25=CC_DESIGN_PERSON_AND_ORGANIZATION_ASSIGNMENT(#57,#20,(#96));
#26=CC_DESIGN_PERSON_AND_ORGANIZATION_ASSIGNMENT(#60,#21,(#14));
#27=CC_DESIGN_PERSON_AND_ORGANIZATION_ASSIGNMENT(#61,#22,(#97));
#28=CC_DESIGN_PERSON_AND_ORGANIZATION_ASSIGNMENT(#62,#23,(#97));
#29=CC_DESIGN_PERSON_AND_ORGANIZATION_ASSIGNMENT(#63,#24,(#98));
#30=DATE_TIME_ROLE('creation_date');
#31=DATE_TIME_ROLE('classification_date');
#32=CC_DESIGN_DATE_AND_TIME_ASSIGNMENT(#86,#30,(#96));
#33=CC_DESIGN_DATE_AND_TIME_ASSIGNMENT(#89,#31,(#14));
#34=CC_DESIGN_APPROVAL(#93,(#96));
#35=CC_DESIGN_APPROVAL(#94,(#97));
#36=CC_DESIGN_APPROVAL(#95,(#14));
#37=APPROVAL_PERSON_ORGANIZATION(#56,#93,#64);
#38=APPROVAL_PERSON_ORGANIZATION(#58,#94,#65);
#39=APPROVAL_PERSON_ORGANIZATION(#59,#95,#66);
#40=ORGANIZATION('DEFINITION_APPROVEDBY_ORG_ID',
'DEFINITION_APPROVEDBY_ORG_NAME','DEFINITION_APPROVEDBY_ORG_DESCR');
#41=ORGANIZATION('DEF_CREATOR_ORG_ID','DEF_CREATOR_ORG_NAME',
'DEF_CREATOR_ORG_DESCR');
#42=ORGANIZATION('APPROVEDBY_ORG_ID','APPROVEDBY_ORG_NAME',
'APPROVEDBY_ORG_DESCR');
#43=ORGANIZATION('SECURITY_APPROVEDBY_ORG_ID',
'SECURITY_APPROVEDBY_ORG_NAME','SECURITY_APPROVEDBY_ORG_DESCR');
#44=ORGANIZATION('CLASSOFFICER_ORG_ID','CLASSOFFICER_ORG_NAME',
'CLASSOFFICER_ORG_DESCR');
#45=ORGANIZATION('CREATOR_ORG_ID','CREATOR_ORG_NAME',
'CREATOR_ORG_DESCR');
#46=ORGANIZATION('SUPPLIER_ORG_ID','SUPPLIER_ORG_NAME',
'SUPPLIER_ORG_DESCR');
#47=ORGANIZATION('OWNER_ORG_ID','OWNER_ORG_NAME','OWNER_ORG_DESCR');
#48=PERSON('DEFINITION_approverID','DEFINITION_APPROVEDBY_LASTNAME',
'DEFINITION_APPROVEDBY_FIRSTNAME',$,$,$);
#49=PERSON('DEF_createrID','DEF_CREATOR_LASTNAME',
'DEF_CREATOR_FIRSTNAME',$,$,$);
#50=PERSON('approverID','APPROVEDBY_LASTNAME','APPROVEDBY_FIRSTNAME',$,
$,$);
#51=PERSON('SECURITY_approverID','SECURITY_LASTNAME',
'SECURITY_APPROVEDBY_FIRSTNAME',$,$,$);
#52=PERSON('classifierID','CLASSOFFICER_LASTNAME',
'CLASSOFFICER_FIRSTNAME',$,$,$);
#53=PERSON('createrID','CREATOR_LASTNAME','CREATOR_FIRSTNAME',$,$,$);
#54=PERSON('supplierID','SUPPLIER_LASTNAME','SUPPLIER_FIRSTNAME',$,$,$);
#55=PERSON('ownerID','OWNER_LASTNAME','OWNER_FIRSTNAME',$,$,$);
#56=PERSON_AND_ORGANIZATION(#48,#40);
#57=PERSON_AND_ORGANIZATION(#49,#41);
#58=PERSON_AND_ORGANIZATION(#50,#42);
#59=PERSON_AND_ORGANIZATION(#51,#43);
#60=PERSON_AND_ORGANIZATION(#52,#44);
#61=PERSON_AND_ORGANIZATION(#53,#45);
#62=PERSON_AND_ORGANIZATION(#54,#46);
#63=PERSON_AND_ORGANIZATION(#55,#47);
#64=APPROVAL_ROLE('definition_approval');
#65=APPROVAL_ROLE('version_approval');
#66=APPROVAL_ROLE('security_approval');
#67=APPROVAL_DATE_TIME(#85,#93);
#68=APPROVAL_DATE_TIME(#87,#94);
#69=APPROVAL_DATE_TIME(#88,#95);
#70=COORDINATED_UNIVERSAL_TIME_OFFSET(5,0,.BEHIND.);
#71=COORDINATED_UNIVERSAL_TIME_OFFSET(5,0,.BEHIND.);
#72=COORDINATED_UNIVERSAL_TIME_OFFSET(5,0,.BEHIND.);
#73=COORDINATED_UNIVERSAL_TIME_OFFSET(5,0,.BEHIND.);
#74=COORDINATED_UNIVERSAL_TIME_OFFSET(5,0,.BEHIND.);
#75=LOCAL_TIME(6,18,24.,#70);
#76=LOCAL_TIME(6,18,24.,#71);
#77=LOCAL_TIME(6,18,24.,#72);
#78=LOCAL_TIME(6,18,24.,#73);
#79=LOCAL_TIME(6,18,24.,#74);
#80=CALENDAR_DATE(2018,21,8);
#81=CALENDAR_DATE(2018,21,8);
#82=CALENDAR_DATE(2018,21,8);
#83=CALENDAR_DATE(2018,21,8);
#84=CALENDAR_DATE(2018,21,8);
#85=DATE_AND_TIME(#80,#75);
#86=DATE_AND_TIME(#81,#76);
#87=DATE_AND_TIME(#82,#77);
#88=DATE_AND_TIME(#83,#78);
#89=DATE_AND_TIME(#84,#79);
#90=APPROVAL_STATUS('not_yet_approved');
#91=APPROVAL_STATUS('not_yet_approved');
#92=APPROVAL_STATUS('not_yet_approved');
#93=APPROVAL(#90,'defintion approval');
#94=APPROVAL(#91,'version approval');
#95=APPROVAL(#92,'security approval');
#96=PRODUCT_DEFINITION('DefinitionID','DefinitionDesc',#97,#19);
#97=PRODUCT_DEFINITION_FORMATION_WITH_SPECIFIED_SOURCE(
'PRODUCT_VERSION_ID','PRODUCT_VERSION_DESCR',#98,.NOT_KNOWN.);
#98=PRODUCT('ID_1','SP-2605','',(#10));
#99=(
LENGTH_UNIT()
NAMED_UNIT(*)
SI_UNIT(.CENTI.,.METRE.)
);
#100=(
NAMED_UNIT(*)
PLANE_ANGLE_UNIT()
SI_UNIT($,.RADIAN.)
);
#101=(
NAMED_UNIT(*)
SI_UNIT($,.STERADIAN.)
SOLID_ANGLE_UNIT()
);
#102=UNCERTAINTY_MEASURE_WITH_UNIT(LENGTH_MEASURE(1.E-6),#99,
'DISTANCE_ACCURACY_VALUE',
'Maximum model space distance between geometric entities at asserted c
onnectivities');
#103=(
GEOMETRIC_REPRESENTATION_CONTEXT(3)
GLOBAL_UNCERTAINTY_ASSIGNED_CONTEXT((#102))
GLOBAL_UNIT_ASSIGNED_CONTEXT((#101,#100,#99))
REPRESENTATION_CONTEXT('ID1','3D')
);
#104=CYLINDRICAL_SURFACE('',#453,6.16572651778568E-5);
#105=CYLINDRICAL_SURFACE('',#456,1.25);
#106=CYLINDRICAL_SURFACE('',#459,1.15);
#107=CYLINDRICAL_SURFACE('',#462,0.6375);
#108=CYLINDRICAL_SURFACE('',#466,1.15);
#109=CYLINDRICAL_SURFACE('',#470,1.3);
#110=CYLINDRICAL_SURFACE('',#476,0.6175);
#111=CYLINDRICAL_SURFACE('',#480,1.13);
#112=CYLINDRICAL_SURFACE('',#483,1.28);
#113=DEGENERATE_TOROIDAL_SURFACE('',#451,0.025210018369484,0.248254858886094,
 .F.);
#114=DEGENERATE_TOROIDAL_SURFACE('',#455,0.025210018369484,0.268254858886094,
 .F.);
#115=CONICAL_SURFACE('',#445,0.210688757085174,0.734195084876986);
#116=CONICAL_SURFACE('',#447,0.194926850739418,0.713036928372374);
#117=TOROIDAL_SURFACE('',#435,0.202848519187995,0.05);
#118=CIRCLE('',#433,1.15);
#119=CIRCLE('',#434,0.6375);
#120=CIRCLE('',#436,0.227628441441454);
#121=CIRCLE('',#437,0.178068596934535);
#122=CIRCLE('',#439,1.15);
#123=CIRCLE('',#441,0.218737725264965);
#124=CIRCLE('',#442,1.13);
#125=CIRCLE('',#444,0.14099417253553);
#126=CIRCLE('',#446,0.202639788905382);
#127=CIRCLE('',#448,0.187213912573453);
#128=CIRCLE('',#450,0.133900522918205);
#129=CIRCLE('',#452,6.16572651779279E-5);
#130=CIRCLE('',#454,6.16572651777857E-5);
#131=CIRCLE('',#457,1.25);
#132=CIRCLE('',#458,1.25);
#133=CIRCLE('',#460,1.15);
#134=CIRCLE('',#463,0.6375);
#135=CIRCLE('',#464,0.6375);
#136=CIRCLE('',#467,1.15);
#137=CIRCLE('',#468,1.15);
#138=CIRCLE('',#471,1.3);
#139=CIRCLE('',#472,1.3);
#140=CIRCLE('',#475,1.28);
#141=CIRCLE('',#477,0.6175);
#142=CIRCLE('',#478,0.6175);
#143=CIRCLE('',#481,1.13);
#144=CIRCLE('',#484,1.28);
#145=VERTEX_POINT('',#590);
#146=VERTEX_POINT('',#591);
#147=VERTEX_POINT('',#593);
#148=VERTEX_POINT('',#595);
#149=VERTEX_POINT('',#599);
#150=VERTEX_POINT('',#600);
#151=VERTEX_POINT('',#602);
#152=VERTEX_POINT('',#604);
#153=VERTEX_POINT('',#611);
#154=VERTEX_POINT('',#613);
#155=VERTEX_POINT('',#616);
#156=VERTEX_POINT('',#619);
#157=VERTEX_POINT('',#621);
#158=VERTEX_POINT('',#624);
#159=VERTEX_POINT('',#627);
#160=VERTEX_POINT('',#630);
#161=VERTEX_POINT('',#633);
#162=VERTEX_POINT('',#636);
#163=VERTEX_POINT('',#639);
#164=VERTEX_POINT('',#643);
#165=VERTEX_POINT('',#645);
#166=VERTEX_POINT('',#648);
#167=VERTEX_POINT('',#653);
#168=VERTEX_POINT('',#658);
#169=VERTEX_POINT('',#662);
#170=VERTEX_POINT('',#664);
#171=VERTEX_POINT('',#668);
#172=VERTEX_POINT('',#671);
#173=VERTEX_POINT('',#673);
#174=VERTEX_POINT('',#677);
#175=VERTEX_POINT('',#681);
#176=VECTOR('',#487,1.);
#177=VECTOR('',#488,1.);
#178=VECTOR('',#489,1.);
#179=VECTOR('',#490,1.);
#180=VECTOR('',#492,1.);
#181=VECTOR('',#493,1.);
#182=VECTOR('',#494,1.);
#183=VECTOR('',#495,1.);
#184=LINE('',#589,#176);
#185=LINE('',#592,#177);
#186=LINE('',#594,#178);
#187=LINE('',#596,#179);
#188=LINE('',#598,#180);
#189=LINE('',#601,#181);
#190=LINE('',#603,#182);
#191=LINE('',#605,#183);
#192=EDGE_CURVE('',#145,#146,#184,.T.);
#193=EDGE_CURVE('',#147,#146,#185,.T.);
#194=EDGE_CURVE('',#148,#147,#186,.T.);
#195=EDGE_CURVE('',#148,#145,#187,.T.);
#196=EDGE_CURVE('',#149,#150,#188,.T.);
#197=EDGE_CURVE('',#151,#150,#189,.T.);
#198=EDGE_CURVE('',#152,#151,#190,.T.);
#199=EDGE_CURVE('',#149,#152,#191,.T.);
#200=EDGE_CURVE('',#150,#145,#118,.T.);
#201=EDGE_CURVE('',#146,#149,#119,.T.);
#202=EDGE_CURVE('',#153,#153,#120,.T.);
#203=EDGE_CURVE('',#154,#154,#121,.T.);
#204=EDGE_CURVE('',#155,#155,#122,.T.);
#205=EDGE_CURVE('',#156,#156,#123,.T.);
#206=EDGE_CURVE('',#157,#157,#124,.T.);
#207=EDGE_CURVE('',#158,#158,#125,.T.);
#208=EDGE_CURVE('',#159,#159,#126,.T.);
#209=EDGE_CURVE('',#160,#160,#127,.T.);
#210=EDGE_CURVE('',#161,#161,#128,.T.);
#211=EDGE_CURVE('',#162,#162,#129,.T.);
#212=EDGE_CURVE('',#163,#163,#130,.T.);
#213=EDGE_CURVE('',#164,#164,#131,.T.);
#214=EDGE_CURVE('',#165,#165,#132,.T.);
#215=EDGE_CURVE('',#166,#166,#133,.T.);
#216=EDGE_CURVE('',#147,#152,#134,.T.);
#217=EDGE_CURVE('',#167,#167,#135,.T.);
#218=EDGE_CURVE('',#148,#151,#136,.T.);
#219=EDGE_CURVE('',#168,#168,#137,.T.);
#220=EDGE_CURVE('',#169,#169,#138,.T.);
#221=EDGE_CURVE('',#170,#170,#139,.T.);
#222=EDGE_CURVE('',#171,#171,#140,.F.);
#223=EDGE_CURVE('',#172,#172,#141,.T.);
#224=EDGE_CURVE('',#173,#173,#142,.T.);
#225=EDGE_CURVE('',#174,#174,#143,.T.);
#226=EDGE_CURVE('',#175,#175,#144,.T.);
#227=ORIENTED_EDGE('',*,*,#192,.T.);
#228=ORIENTED_EDGE('',*,*,#193,.F.);
#229=ORIENTED_EDGE('',*,*,#194,.F.);
#230=ORIENTED_EDGE('',*,*,#195,.T.);
#231=ORIENTED_EDGE('',*,*,#196,.T.);
#232=ORIENTED_EDGE('',*,*,#197,.F.);
#233=ORIENTED_EDGE('',*,*,#198,.F.);
#234=ORIENTED_EDGE('',*,*,#199,.F.);
#235=ORIENTED_EDGE('',*,*,#192,.F.);
#236=ORIENTED_EDGE('',*,*,#200,.F.);
#237=ORIENTED_EDGE('',*,*,#196,.F.);
#238=ORIENTED_EDGE('',*,*,#201,.F.);
#239=ORIENTED_EDGE('',*,*,#202,.F.);
#240=ORIENTED_EDGE('',*,*,#203,.T.);
#241=ORIENTED_EDGE('',*,*,#202,.T.);
#242=ORIENTED_EDGE('',*,*,#204,.F.);
#243=ORIENTED_EDGE('',*,*,#205,.F.);
#244=ORIENTED_EDGE('',*,*,#206,.F.);
#245=ORIENTED_EDGE('',*,*,#203,.F.);
#246=ORIENTED_EDGE('',*,*,#207,.T.);
#247=ORIENTED_EDGE('',*,*,#208,.F.);
#248=ORIENTED_EDGE('',*,*,#205,.T.);
#249=ORIENTED_EDGE('',*,*,#209,.F.);
#250=ORIENTED_EDGE('',*,*,#208,.T.);
#251=ORIENTED_EDGE('',*,*,#210,.F.);
#252=ORIENTED_EDGE('',*,*,#209,.T.);
#253=ORIENTED_EDGE('',*,*,#211,.F.);
#254=ORIENTED_EDGE('',*,*,#210,.T.);
#255=ORIENTED_EDGE('',*,*,#212,.F.);
#256=ORIENTED_EDGE('',*,*,#211,.T.);
#257=ORIENTED_EDGE('',*,*,#207,.F.);
#258=ORIENTED_EDGE('',*,*,#212,.T.);
#259=ORIENTED_EDGE('',*,*,#213,.T.);
#260=ORIENTED_EDGE('',*,*,#214,.F.);
#261=ORIENTED_EDGE('',*,*,#204,.T.);
#262=ORIENTED_EDGE('',*,*,#215,.T.);
#263=ORIENTED_EDGE('',*,*,#215,.F.);
#264=ORIENTED_EDGE('',*,*,#213,.F.);
#265=ORIENTED_EDGE('',*,*,#199,.T.);
#266=ORIENTED_EDGE('',*,*,#216,.F.);
#267=ORIENTED_EDGE('',*,*,#193,.T.);
#268=ORIENTED_EDGE('',*,*,#201,.T.);
#269=ORIENTED_EDGE('',*,*,#217,.T.);
#270=ORIENTED_EDGE('',*,*,#217,.F.);
#271=ORIENTED_EDGE('',*,*,#218,.T.);
#272=ORIENTED_EDGE('',*,*,#197,.T.);
#273=ORIENTED_EDGE('',*,*,#200,.T.);
#274=ORIENTED_EDGE('',*,*,#195,.F.);
#275=ORIENTED_EDGE('',*,*,#219,.F.);
#276=ORIENTED_EDGE('',*,*,#198,.T.);
#277=ORIENTED_EDGE('',*,*,#218,.F.);
#278=ORIENTED_EDGE('',*,*,#194,.T.);
#279=ORIENTED_EDGE('',*,*,#216,.T.);
#280=ORIENTED_EDGE('',*,*,#220,.T.);
#281=ORIENTED_EDGE('',*,*,#221,.T.);
#282=ORIENTED_EDGE('',*,*,#219,.T.);
#283=ORIENTED_EDGE('',*,*,#220,.F.);
#284=ORIENTED_EDGE('',*,*,#221,.F.);
#285=ORIENTED_EDGE('',*,*,#222,.T.);
#286=ORIENTED_EDGE('',*,*,#223,.F.);
#287=ORIENTED_EDGE('',*,*,#224,.T.);
#288=ORIENTED_EDGE('',*,*,#223,.T.);
#289=ORIENTED_EDGE('',*,*,#206,.T.);
#290=ORIENTED_EDGE('',*,*,#225,.F.);
#291=ORIENTED_EDGE('',*,*,#224,.F.);
#292=ORIENTED_EDGE('',*,*,#225,.T.);
#293=ORIENTED_EDGE('',*,*,#226,.F.);
#294=ORIENTED_EDGE('',*,*,#222,.F.);
#295=ORIENTED_EDGE('',*,*,#214,.T.);
#296=ORIENTED_EDGE('',*,*,#226,.T.);
#297=EDGE_LOOP('',(#227,#228,#229,#230));
#298=EDGE_LOOP('',(#231,#232,#233,#234));
#299=EDGE_LOOP('',(#235,#236,#237,#238));
#300=EDGE_LOOP('',(#239));
#301=EDGE_LOOP('',(#240));
#302=EDGE_LOOP('',(#241));
#303=EDGE_LOOP('',(#242));
#304=EDGE_LOOP('',(#243));
#305=EDGE_LOOP('',(#244));
#306=EDGE_LOOP('',(#245));
#307=EDGE_LOOP('',(#246));
#308=EDGE_LOOP('',(#247));
#309=EDGE_LOOP('',(#248));
#310=EDGE_LOOP('',(#249));
#311=EDGE_LOOP('',(#250));
#312=EDGE_LOOP('',(#251));
#313=EDGE_LOOP('',(#252));
#314=EDGE_LOOP('',(#253));
#315=EDGE_LOOP('',(#254));
#316=EDGE_LOOP('',(#255));
#317=EDGE_LOOP('',(#256));
#318=EDGE_LOOP('',(#257));
#319=EDGE_LOOP('',(#258));
#320=EDGE_LOOP('',(#259));
#321=EDGE_LOOP('',(#260));
#322=EDGE_LOOP('',(#261));
#323=EDGE_LOOP('',(#262));
#324=EDGE_LOOP('',(#263));
#325=EDGE_LOOP('',(#264));
#326=EDGE_LOOP('',(#265,#266,#267,#268));
#327=EDGE_LOOP('',(#269));
#328=EDGE_LOOP('',(#270));
#329=EDGE_LOOP('',(#271,#272,#273,#274));
#330=EDGE_LOOP('',(#275));
#331=EDGE_LOOP('',(#276,#277,#278,#279));
#332=EDGE_LOOP('',(#280));
#333=EDGE_LOOP('',(#281));
#334=EDGE_LOOP('',(#282));
#335=EDGE_LOOP('',(#283));
#336=EDGE_LOOP('',(#284));
#337=EDGE_LOOP('',(#285));
#338=EDGE_LOOP('',(#286));
#339=EDGE_LOOP('',(#287));
#340=EDGE_LOOP('',(#288));
#341=EDGE_LOOP('',(#289));
#342=EDGE_LOOP('',(#290));
#343=EDGE_LOOP('',(#291));
#344=EDGE_LOOP('',(#292));
#345=EDGE_LOOP('',(#293));
#346=EDGE_LOOP('',(#294));
#347=EDGE_LOOP('',(#295));
#348=EDGE_LOOP('',(#296));
#349=FACE_BOUND('',#297,.T.);
#350=FACE_BOUND('',#298,.T.);
#351=FACE_BOUND('',#299,.T.);
#352=FACE_BOUND('',#300,.T.);
#353=FACE_BOUND('',#301,.T.);
#354=FACE_BOUND('',#302,.T.);
#355=FACE_BOUND('',#303,.T.);
#356=FACE_BOUND('',#304,.T.);
#357=FACE_BOUND('',#305,.T.);
#358=FACE_BOUND('',#306,.T.);
#359=FACE_BOUND('',#307,.T.);
#360=FACE_BOUND('',#308,.T.);
#361=FACE_BOUND('',#309,.T.);
#362=FACE_BOUND('',#310,.T.);
#363=FACE_BOUND('',#311,.T.);
#364=FACE_BOUND('',#312,.T.);
#365=FACE_BOUND('',#313,.T.);
#366=FACE_BOUND('',#314,.T.);
#367=FACE_BOUND('',#315,.T.);
#368=FACE_BOUND('',#316,.T.);
#369=FACE_BOUND('',#317,.T.);
#370=FACE_BOUND('',#318,.T.);
#371=FACE_BOUND('',#319,.T.);
#372=FACE_BOUND('',#320,.T.);
#373=FACE_BOUND('',#321,.T.);
#374=FACE_BOUND('',#322,.T.);
#375=FACE_BOUND('',#323,.T.);
#376=FACE_BOUND('',#324,.T.);
#377=FACE_BOUND('',#325,.T.);
#378=FACE_BOUND('',#326,.T.);
#379=FACE_BOUND('',#327,.T.);
#380=FACE_BOUND('',#328,.T.);
#381=FACE_BOUND('',#329,.T.);
#382=FACE_BOUND('',#330,.T.);
#383=FACE_BOUND('',#331,.T.);
#384=FACE_BOUND('',#332,.T.);
#385=FACE_BOUND('',#333,.T.);
#386=FACE_BOUND('',#334,.T.);
#387=FACE_BOUND('',#335,.T.);
#388=FACE_BOUND('',#336,.T.);
#389=FACE_BOUND('',#337,.T.);
#390=FACE_BOUND('',#338,.T.);
#391=FACE_BOUND('',#339,.T.);
#392=FACE_BOUND('',#340,.T.);
#393=FACE_BOUND('',#341,.T.);
#394=FACE_BOUND('',#342,.T.);
#395=FACE_BOUND('',#343,.T.);
#396=FACE_BOUND('',#344,.T.);
#397=FACE_BOUND('',#345,.T.);
#398=FACE_BOUND('',#346,.T.);
#399=FACE_BOUND('',#347,.T.);
#400=FACE_BOUND('',#348,.T.);
#401=ADVANCED_FACE('',(#349),#683,.T.);
#402=ADVANCED_FACE('',(#350),#684,.T.);
#403=ADVANCED_FACE('',(#351),#685,.T.);
#404=ADVANCED_FACE('',(#352,#353),#117,.T.);
#405=ADVANCED_FACE('',(#354,#355),#686,.T.);
#406=ADVANCED_FACE('',(#356,#357),#687,.T.);
#407=ADVANCED_FACE('',(#358,#359),#688,.T.);
#408=ADVANCED_FACE('',(#360,#361),#115,.F.);
#409=ADVANCED_FACE('',(#362,#363),#116,.T.);
#410=ADVANCED_FACE('',(#364,#365),#689,.T.);
#411=ADVANCED_FACE('',(#366,#367),#113,.F.);
#412=ADVANCED_FACE('',(#368,#369),#104,.F.);
#413=ADVANCED_FACE('',(#370,#371),#114,.T.);
#414=ADVANCED_FACE('',(#372,#373),#105,.T.);
#415=ADVANCED_FACE('',(#374,#375),#106,.F.);
#416=ADVANCED_FACE('',(#376,#377),#690,.T.);
#417=ADVANCED_FACE('',(#378,#379),#107,.T.);
#418=ADVANCED_FACE('',(#380),#691,.T.);
#419=ADVANCED_FACE('',(#381,#382),#108,.T.);
#420=ADVANCED_FACE('',(#383),#692,.T.);
#421=ADVANCED_FACE('',(#384,#385),#109,.T.);
#422=ADVANCED_FACE('',(#386,#387),#693,.T.);
#423=ADVANCED_FACE('',(#388,#389),#694,.F.);
#424=ADVANCED_FACE('',(#390,#391),#110,.F.);
#425=ADVANCED_FACE('',(#392),#695,.F.);
#426=ADVANCED_FACE('',(#393,#394),#111,.F.);
#427=ADVANCED_FACE('',(#395,#396),#696,.F.);
#428=ADVANCED_FACE('',(#397,#398),#112,.F.);
#429=ADVANCED_FACE('',(#399,#400),#697,.F.);
#430=AXIS2_PLACEMENT_3D('',#588,#486,$);
#431=AXIS2_PLACEMENT_3D('',#597,#491,$);
#432=AXIS2_PLACEMENT_3D('',#606,#496,$);
#433=AXIS2_PLACEMENT_3D('',#607,#497,#498);
#434=AXIS2_PLACEMENT_3D('',#608,#499,#500);
#435=AXIS2_PLACEMENT_3D('',#609,#501,$);
#436=AXIS2_PLACEMENT_3D('',#610,#502,#503);
#437=AXIS2_PLACEMENT_3D('',#612,#504,#505);
#438=AXIS2_PLACEMENT_3D('',#614,#506,$);
#439=AXIS2_PLACEMENT_3D('',#615,#507,#508);
#440=AXIS2_PLACEMENT_3D('',#617,#509,$);
#441=AXIS2_PLACEMENT_3D('',#618,#510,#511);
#442=AXIS2_PLACEMENT_3D('',#620,#512,#513);
#443=AXIS2_PLACEMENT_3D('',#622,#514,$);
#444=AXIS2_PLACEMENT_3D('',#623,#515,#516);
#445=AXIS2_PLACEMENT_3D('',#625,#517,#518);
#446=AXIS2_PLACEMENT_3D('',#626,#519,#520);
#447=AXIS2_PLACEMENT_3D('',#628,#521,#522);
#448=AXIS2_PLACEMENT_3D('',#629,#523,#524);
#449=AXIS2_PLACEMENT_3D('',#631,#525,$);
#450=AXIS2_PLACEMENT_3D('',#632,#526,#527);
#451=AXIS2_PLACEMENT_3D('',#634,#528,$);
#452=AXIS2_PLACEMENT_3D('',#635,#529,#530);
#453=AXIS2_PLACEMENT_3D('',#637,#531,#532);
#454=AXIS2_PLACEMENT_3D('',#638,#533,#534);
#455=AXIS2_PLACEMENT_3D('',#640,#535,$);
#456=AXIS2_PLACEMENT_3D('',#641,#536,#537);
#457=AXIS2_PLACEMENT_3D('',#642,#538,#539);
#458=AXIS2_PLACEMENT_3D('',#644,#540,#541);
#459=AXIS2_PLACEMENT_3D('',#646,#542,#543);
#460=AXIS2_PLACEMENT_3D('',#647,#544,#545);
#461=AXIS2_PLACEMENT_3D('',#649,#546,$);
#462=AXIS2_PLACEMENT_3D('',#650,#547,#548);
#463=AXIS2_PLACEMENT_3D('',#651,#549,#550);
#464=AXIS2_PLACEMENT_3D('',#652,#551,#552);
#465=AXIS2_PLACEMENT_3D('',#654,#553,$);
#466=AXIS2_PLACEMENT_3D('',#655,#554,#555);
#467=AXIS2_PLACEMENT_3D('',#656,#556,#557);
#468=AXIS2_PLACEMENT_3D('',#657,#558,#559);
#469=AXIS2_PLACEMENT_3D('',#659,#560,$);
#470=AXIS2_PLACEMENT_3D('',#660,#561,#562);
#471=AXIS2_PLACEMENT_3D('',#661,#563,#564);
#472=AXIS2_PLACEMENT_3D('',#663,#565,#566);
#473=AXIS2_PLACEMENT_3D('',#665,#567,$);
#474=AXIS2_PLACEMENT_3D('',#666,#568,$);
#475=AXIS2_PLACEMENT_3D('',#667,#569,#570);
#476=AXIS2_PLACEMENT_3D('',#669,#571,#572);
#477=AXIS2_PLACEMENT_3D('',#670,#573,#574);
#478=AXIS2_PLACEMENT_3D('',#672,#575,#576);
#479=AXIS2_PLACEMENT_3D('',#674,#577,$);
#480=AXIS2_PLACEMENT_3D('',#675,#578,#579);
#481=AXIS2_PLACEMENT_3D('',#676,#580,#581);
#482=AXIS2_PLACEMENT_3D('',#678,#582,$);
#483=AXIS2_PLACEMENT_3D('',#679,#583,#584);
#484=AXIS2_PLACEMENT_3D('',#680,#585,#586);
#485=AXIS2_PLACEMENT_3D('',#682,#587,$);
#486=DIRECTION('',(0.801447000887957,-0.59806580304152,0.));
#487=DIRECTION('',(-0.59806580304152,-0.801447000887957,0.));
#488=DIRECTION('',(0.,0.,1.));
#489=DIRECTION('',(-0.59806580304152,-0.801447000887957,0.));
#490=DIRECTION('',(0.,0.,1.));
#491=DIRECTION('',(-0.801447000887957,-0.598065803041521,0.));
#492=DIRECTION('',(-0.598065803041521,0.801447000887957,0.));
#493=DIRECTION('',(0.,0.,1.));
#494=DIRECTION('',(-0.598065803041521,0.801447000887957,0.));
#495=DIRECTION('',(0.,0.,-1.));
#496=DIRECTION('',(0.,0.,1.));
#497=DIRECTION('',(0.,0.,-1.));
#498=DIRECTION('',(1.15,0.,0.));
#499=DIRECTION('',(0.,0.,1.));
#500=DIRECTION('',(0.6375,0.,0.));
#501=DIRECTION('',(1.3817094742787E-47,8.16681914443051E-32,-1.));
#502=DIRECTION('',(0.,0.,1.));
#503=DIRECTION('',(0.227628441441454,0.,0.));
#504=DIRECTION('',(0.,0.,1.));
#505=DIRECTION('',(0.178068596934535,0.,0.));
#506=DIRECTION('',(5.71835237661794E-17,0.,-1.));
#507=DIRECTION('',(-5.71835237661794E-17,0.,1.));
#508=DIRECTION('',(-1.15,0.,0.));
#509=DIRECTION('',(1.13329115476168E-16,0.,1.));
#510=DIRECTION('',(0.,0.,1.));
#511=DIRECTION('',(0.218737725264965,0.,0.));
#512=DIRECTION('',(-1.13329115476168E-16,0.,-1.));
#513=DIRECTION('',(1.13,0.,0.));
#514=DIRECTION('',(-3.74322407772477E-16,0.,-1.));
#515=DIRECTION('',(0.,0.,1.));
#516=DIRECTION('',(0.14099417253553,0.,0.));
#517=DIRECTION('',(0.,0.,1.));
#518=DIRECTION('',(0.210688757085174,0.,0.));
#519=DIRECTION('',(0.,0.,1.));
#520=DIRECTION('',(0.202639788905382,0.,0.));
#521=DIRECTION('',(0.,0.,-1.));
#522=DIRECTION('',(0.194926850739418,0.,0.));
#523=DIRECTION('',(0.,0.,1.));
#524=DIRECTION('',(0.187213912573453,0.,0.));
#525=DIRECTION('',(1.56183516721282E-15,0.,1.));
#526=DIRECTION('',(0.,0.,1.));
#527=DIRECTION('',(0.133900522918205,0.,0.));
#528=DIRECTION('',(0.,0.,1.));
#529=DIRECTION('',(0.,0.,1.));
#530=DIRECTION('',(6.16572651779279E-5,0.,0.));
#531=DIRECTION('',(0.,0.,1.));
#532=DIRECTION('',(6.16572651778568E-5,0.,0.));
#533=DIRECTION('',(0.,0.,1.));
#534=DIRECTION('',(6.16572651777857E-5,0.,0.));
#535=DIRECTION('',(0.,0.,1.));
#536=DIRECTION('',(0.,0.,-1.));
#537=DIRECTION('',(-1.25,0.,0.));
#538=DIRECTION('',(0.,0.,1.));
#539=DIRECTION('',(-1.25,0.,0.));
#540=DIRECTION('',(0.,0.,1.));
#541=DIRECTION('',(-1.25,0.,0.));
#542=DIRECTION('',(0.,0.,-1.));
#543=DIRECTION('',(-1.15,0.,0.));
#544=DIRECTION('',(0.,0.,-1.));
#545=DIRECTION('',(-1.15,0.,0.));
#546=DIRECTION('',(0.,0.,-1.));
#547=DIRECTION('',(0.,0.,1.));
#548=DIRECTION('',(0.6375,0.,0.));
#549=DIRECTION('',(0.,0.,-1.));
#550=DIRECTION('',(0.6375,0.,0.));
#551=DIRECTION('',(0.,0.,-1.));
#552=DIRECTION('',(0.6375,0.,0.));
#553=DIRECTION('',(0.,0.,1.));
#554=DIRECTION('',(0.,0.,1.));
#555=DIRECTION('',(1.15,0.,0.));
#556=DIRECTION('',(0.,0.,-1.));
#557=DIRECTION('',(1.15,0.,0.));
#558=DIRECTION('',(0.,0.,-1.));
#559=DIRECTION('',(1.15,0.,0.));
#560=DIRECTION('',(0.,0.,1.));
#561=DIRECTION('',(0.,0.,1.));
#562=DIRECTION('',(1.3,0.,0.));
#563=DIRECTION('',(0.,0.,-1.));
#564=DIRECTION('',(1.3,0.,0.));
#565=DIRECTION('',(0.,0.,1.));
#566=DIRECTION('',(1.3,0.,0.));
#567=DIRECTION('',(0.,0.,1.));
#568=DIRECTION('',(0.,0.,1.));
#569=DIRECTION('',(0.,0.,-1.));
#570=DIRECTION('',(1.28,0.,0.));
#571=DIRECTION('',(0.,0.,1.));
#572=DIRECTION('',(0.6175,0.,0.));
#573=DIRECTION('',(0.,0.,-1.));
#574=DIRECTION('',(0.6175,0.,0.));
#575=DIRECTION('',(0.,0.,-1.));
#576=DIRECTION('',(0.6175,0.,0.));
#577=DIRECTION('',(0.,0.,1.));
#578=DIRECTION('',(0.,0.,1.));
#579=DIRECTION('',(1.13,0.,0.));
#580=DIRECTION('',(0.,0.,-1.));
#581=DIRECTION('',(1.13,0.,0.));
#582=DIRECTION('',(0.,0.,1.));
#583=DIRECTION('',(0.,0.,1.));
#584=DIRECTION('',(1.28,0.,0.));
#585=DIRECTION('',(0.,0.,-1.));
#586=DIRECTION('',(1.28,0.,0.));
#587=DIRECTION('',(0.,0.,1.));
#588=CARTESIAN_POINT('',(0.534521311468359,0.716293257043612,0.25));
#589=CARTESIAN_POINT('',(0.381266949438969,0.510922463066073,0.3625));
#590=CARTESIAN_POINT('',(0.687775673497749,0.921664051021151,0.3625));
#591=CARTESIAN_POINT('',(0.381266949438969,0.510922463066073,0.3625));
#592=CARTESIAN_POINT('',(0.381266949438969,0.510922463066073,0.30625));
#593=CARTESIAN_POINT('',(0.381266949438969,0.510922463066073,0.25));
#594=CARTESIAN_POINT('',(0.26726065573418,0.358146628521806,0.25));
#595=CARTESIAN_POINT('',(0.687775673497749,0.921664051021151,0.25));
#596=CARTESIAN_POINT('',(0.687775673497749,0.921664051021151,0.25));
#597=CARTESIAN_POINT('',(-0.534521311468359,0.716293257043612,0.25));
#598=CARTESIAN_POINT('',(-0.687775673497748,0.921664051021151,0.3625));
#599=CARTESIAN_POINT('',(-0.381266949438969,0.510922463066073,0.3625));
#600=CARTESIAN_POINT('',(-0.687775673497748,0.921664051021151,0.3625));
#601=CARTESIAN_POINT('',(-0.687775673497748,0.921664051021151,0.25));
#602=CARTESIAN_POINT('',(-0.687775673497748,0.921664051021151,0.25));
#603=CARTESIAN_POINT('',(-0.267260655734179,0.358146628521806,0.25));
#604=CARTESIAN_POINT('',(-0.381266949438969,0.510922463066073,0.25));
#605=CARTESIAN_POINT('',(-0.381266949438969,0.510922463066073,0.30625));
#606=CARTESIAN_POINT('',(4.16333634234434E-17,0.836066772338809,0.3625));
#607=CARTESIAN_POINT('',(0.,0.,0.3625));
#608=CARTESIAN_POINT('',(0.,0.,0.3625));
#609=CARTESIAN_POINT('',(0.,0.,0.154118592118705));
#610=CARTESIAN_POINT('',(0.,0.,0.110691003501415));
#611=CARTESIAN_POINT('',(0.227628441441454,0.,0.110691003501415));
#612=CARTESIAN_POINT('',(0.,0.,0.110691003501415));
#613=CARTESIAN_POINT('',(0.178068596934535,0.,0.110691003501415));
#614=CARTESIAN_POINT('',(0.713005588346917,0.,0.110691003501415));
#615=CARTESIAN_POINT('',(0.,0.,0.110691003501415));
#616=CARTESIAN_POINT('',(1.15,1.40834381901946E-16,0.110691003501415));
#617=CARTESIAN_POINT('',(0.708560230258673,0.,0.130691003501415));
#618=CARTESIAN_POINT('',(0.,0.,0.130691003501415));
#619=CARTESIAN_POINT('',(0.218737725264965,0.,0.130691003501415));
#620=CARTESIAN_POINT('',(0.,0.,0.130691003501415));
#621=CARTESIAN_POINT('',(-1.13,1.38385088303651E-16,0.130691003501415));
#622=CARTESIAN_POINT('',(0.159531384735033,0.,0.110691003501415));
#623=CARTESIAN_POINT('',(0.,0.,0.110691003501415));
#624=CARTESIAN_POINT('',(0.14099417253553,0.,0.110691003501415));
#625=CARTESIAN_POINT('',(0.,0.,0.121772487869323));
#626=CARTESIAN_POINT('',(0.,0.,0.11285397223723));
#627=CARTESIAN_POINT('',(0.202639788905382,0.,0.11285397223723));
#628=CARTESIAN_POINT('',(0.,0.,0.121772487869323));
#629=CARTESIAN_POINT('',(0.,0.,0.130691003501415));
#630=CARTESIAN_POINT('',(0.187213912573453,0.,0.130691003501415));
#631=CARTESIAN_POINT('',(0.160557217745829,0.,0.130691003501415));
#632=CARTESIAN_POINT('',(0.,0.,0.130691003501415));
#633=CARTESIAN_POINT('',(0.133900522918205,0.,0.130691003501415));
#634=CARTESIAN_POINT('',(0.,0.,0.321254144249287));
#635=CARTESIAN_POINT('',(0.,0.,0.0742889293481376));
#636=CARTESIAN_POINT('',(6.16572651779279E-5,0.,0.0742889293481376));
#637=CARTESIAN_POINT('',(0.,0.,0.0642406305198523));
#638=CARTESIAN_POINT('',(0.,0.,0.0541923316915671));
#639=CARTESIAN_POINT('',(6.16572651777857E-5,0.,0.0541923316915671));
#640=CARTESIAN_POINT('',(0.,0.,0.321254144249287));
#641=CARTESIAN_POINT('',(0.,0.,0.13));
#642=CARTESIAN_POINT('',(0.,0.,-0.1));
#643=CARTESIAN_POINT('',(-1.25,0.,-0.1));
#644=CARTESIAN_POINT('',(0.,0.,0.13));
#645=CARTESIAN_POINT('',(-1.25,0.,0.13));
#646=CARTESIAN_POINT('',(0.,0.,0.13));
#647=CARTESIAN_POINT('',(0.,0.,-0.1));
#648=CARTESIAN_POINT('',(-1.15,0.,-0.1));
#649=CARTESIAN_POINT('',(0.,0.,-0.1));
#650=CARTESIAN_POINT('',(0.,0.,0.25));
#651=CARTESIAN_POINT('',(0.,0.,0.25));
#652=CARTESIAN_POINT('',(0.,0.,0.4));
#653=CARTESIAN_POINT('',(0.6375,0.,0.4));
#654=CARTESIAN_POINT('',(0.,0.,0.4));
#655=CARTESIAN_POINT('',(0.,0.,0.15));
#656=CARTESIAN_POINT('',(0.,0.,0.25));
#657=CARTESIAN_POINT('',(0.,0.,0.15));
#658=CARTESIAN_POINT('',(1.15,0.,0.15));
#659=CARTESIAN_POINT('',(0.,0.,0.25));
#660=CARTESIAN_POINT('',(0.,0.,0.));
#661=CARTESIAN_POINT('',(0.,0.,0.15));
#662=CARTESIAN_POINT('',(1.3,0.,0.15));
#663=CARTESIAN_POINT('',(0.,0.,0.));
#664=CARTESIAN_POINT('',(1.3,0.,0.));
#665=CARTESIAN_POINT('',(0.,0.,0.15));
#666=CARTESIAN_POINT('',(0.,0.,0.));
#667=CARTESIAN_POINT('',(0.,0.,0.));
#668=CARTESIAN_POINT('',(-1.28,1.56754790290861E-16,0.));
#669=CARTESIAN_POINT('',(0.,0.,0.25));
#670=CARTESIAN_POINT('',(0.,0.,0.38));
#671=CARTESIAN_POINT('',(-0.6175,7.5621939847349E-17,0.38));
#672=CARTESIAN_POINT('',(0.,0.,0.23));
#673=CARTESIAN_POINT('',(-0.6175,7.5621939847349E-17,0.23));
#674=CARTESIAN_POINT('',(0.,0.,0.38));
#675=CARTESIAN_POINT('',(0.,0.,0.15));
#676=CARTESIAN_POINT('',(0.,0.,0.23));
#677=CARTESIAN_POINT('',(-1.13,1.38385088303651E-16,0.23));
#678=CARTESIAN_POINT('',(0.,0.,0.23));
#679=CARTESIAN_POINT('',(0.,0.,0.));
#680=CARTESIAN_POINT('',(0.,0.,0.13));
#681=CARTESIAN_POINT('',(-1.28,1.56754790290861E-16,0.13));
#682=CARTESIAN_POINT('',(0.,0.,0.13));
#683=PLANE('',#430);
#684=PLANE('',#431);
#685=PLANE('',#432);
#686=PLANE('',#438);
#687=PLANE('',#440);
#688=PLANE('',#443);
#689=PLANE('',#449);
#690=PLANE('',#461);
#691=PLANE('',#465);
#692=PLANE('',#469);
#693=PLANE('',#473);
#694=PLANE('',#474);
#695=PLANE('',#479);
#696=PLANE('',#482);
#697=PLANE('',#485);
#698=CLOSED_SHELL('',(#401,#402,#403,#404,#405,#406,#407,#408,#409,#410,
#411,#412,#413,#414,#415,#416,#417,#418,#419,#420,#421,#422,#423,#424,#425,
#426,#427,#428,#429));
#699=MANIFOLD_SOLID_BREP('',#698);
#700=ADVANCED_BREP_SHAPE_REPRESENTATION('',(#699),#103);
ENDSEC;
END-ISO-10303-21;
