ISO-10303-21;
HEADER;
/* Generated by software containing ST-Developer
 * from STEP Tools, Inc. (www.steptools.com) 
 */

FILE_DESCRIPTION(
/* description */ ('Alibre Inc.'),
/* implementation_level */ '2;1');

FILE_NAME(
/* name */ 'export0',
/* time_stamp */ '2018-08-04T07:49:59-05:00',
/* author */ (''),
/* organization */ (''),
/* preprocessor_version */ 'ST-DEVELOPER v17',
/* originating_system */ 'Alibre',
/* authorisation */ '');

FILE_SCHEMA (('CONFIG_CONTROL_DESIGN'));
ENDSEC;

DATA;
#10=MECHANICAL_CONTEXT('detailed design',#18,'mechanical');
#11=PRODUCT_RELATED_PRODUCT_CATEGORY('detail','',(#98));
#12=CC_DESIGN_SECURITY_CLASSIFICATION(#14,(#97));
#13=SECURITY_CLASSIFICATION_LEVEL('unclassified');
#14=SECURITY_CLASSIFICATION('name','Security for version',#13);
#15=SHAPE_DEFINITION_REPRESENTATION(#16,#664);
#16=PRODUCT_DEFINITION_SHAPE('','DefinitionDesc',#96);
#17=APPLICATION_PROTOCOL_DEFINITION('AP definition status',
'config_control_design',1994,#18);
#18=APPLICATION_CONTEXT(
'control the configuration of three dimensional design');
#19=DESIGN_CONTEXT('detailed design',#18,'design');
#20=PERSON_AND_ORGANIZATION_ROLE('creator');
#21=PERSON_AND_ORGANIZATION_ROLE('classification_officer');
#22=PERSON_AND_ORGANIZATION_ROLE('creator');
#23=PERSON_AND_ORGANIZATION_ROLE('design_supplier');
#24=PERSON_AND_ORGANIZATION_ROLE('design_owner');
#25=CC_DESIGN_PERSON_AND_ORGANIZATION_ASSIGNMENT(#57,#20,(#96));
#26=CC_DESIGN_PERSON_AND_ORGANIZATION_ASSIGNMENT(#60,#21,(#14));
#27=CC_DESIGN_PERSON_AND_ORGANIZATION_ASSIGNMENT(#61,#22,(#97));
#28=CC_DESIGN_PERSON_AND_ORGANIZATION_ASSIGNMENT(#62,#23,(#97));
#29=CC_DESIGN_PERSON_AND_ORGANIZATION_ASSIGNMENT(#63,#24,(#98));
#30=DATE_TIME_ROLE('creation_date');
#31=DATE_TIME_ROLE('classification_date');
#32=CC_DESIGN_DATE_AND_TIME_ASSIGNMENT(#86,#30,(#96));
#33=CC_DESIGN_DATE_AND_TIME_ASSIGNMENT(#89,#31,(#14));
#34=CC_DESIGN_APPROVAL(#93,(#96));
#35=CC_DESIGN_APPROVAL(#94,(#97));
#36=CC_DESIGN_APPROVAL(#95,(#14));
#37=APPROVAL_PERSON_ORGANIZATION(#56,#93,#64);
#38=APPROVAL_PERSON_ORGANIZATION(#58,#94,#65);
#39=APPROVAL_PERSON_ORGANIZATION(#59,#95,#66);
#40=ORGANIZATION('DEFINITION_APPROVEDBY_ORG_ID',
'DEFINITION_APPROVEDBY_ORG_NAME','DEFINITION_APPROVEDBY_ORG_DESCR');
#41=ORGANIZATION('DEF_CREATOR_ORG_ID','DEF_CREATOR_ORG_NAME',
'DEF_CREATOR_ORG_DESCR');
#42=ORGANIZATION('APPROVEDBY_ORG_ID','APPROVEDBY_ORG_NAME',
'APPROVEDBY_ORG_DESCR');
#43=ORGANIZATION('SECURITY_APPROVEDBY_ORG_ID',
'SECURITY_APPROVEDBY_ORG_NAME','SECURITY_APPROVEDBY_ORG_DESCR');
#44=ORGANIZATION('CLASSOFFICER_ORG_ID','CLASSOFFICER_ORG_NAME',
'CLASSOFFICER_ORG_DESCR');
#45=ORGANIZATION('CREATOR_ORG_ID','CREATOR_ORG_NAME',
'CREATOR_ORG_DESCR');
#46=ORGANIZATION('SUPPLIER_ORG_ID','SUPPLIER_ORG_NAME',
'SUPPLIER_ORG_DESCR');
#47=ORGANIZATION('OWNER_ORG_ID','OWNER_ORG_NAME','OWNER_ORG_DESCR');
#48=PERSON('DEFINITION_approverID','DEFINITION_APPROVEDBY_LASTNAME',
'DEFINITION_APPROVEDBY_FIRSTNAME',$,$,$);
#49=PERSON('DEF_createrID','DEF_CREATOR_LASTNAME',
'DEF_CREATOR_FIRSTNAME',$,$,$);
#50=PERSON('approverID','APPROVEDBY_LASTNAME','APPROVEDBY_FIRSTNAME',$,
$,$);
#51=PERSON('SECURITY_approverID','SECURITY_LASTNAME',
'SECURITY_APPROVEDBY_FIRSTNAME',$,$,$);
#52=PERSON('classifierID','CLASSOFFICER_LASTNAME',
'CLASSOFFICER_FIRSTNAME',$,$,$);
#53=PERSON('createrID','CREATOR_LASTNAME','CREATOR_FIRSTNAME',$,$,$);
#54=PERSON('supplierID','SUPPLIER_LASTNAME','SUPPLIER_FIRSTNAME',$,$,$);
#55=PERSON('ownerID','OWNER_LASTNAME','OWNER_FIRSTNAME',$,$,$);
#56=PERSON_AND_ORGANIZATION(#48,#40);
#57=PERSON_AND_ORGANIZATION(#49,#41);
#58=PERSON_AND_ORGANIZATION(#50,#42);
#59=PERSON_AND_ORGANIZATION(#51,#43);
#60=PERSON_AND_ORGANIZATION(#52,#44);
#61=PERSON_AND_ORGANIZATION(#53,#45);
#62=PERSON_AND_ORGANIZATION(#54,#46);
#63=PERSON_AND_ORGANIZATION(#55,#47);
#64=APPROVAL_ROLE('definition_approval');
#65=APPROVAL_ROLE('version_approval');
#66=APPROVAL_ROLE('security_approval');
#67=APPROVAL_DATE_TIME(#85,#93);
#68=APPROVAL_DATE_TIME(#87,#94);
#69=APPROVAL_DATE_TIME(#88,#95);
#70=COORDINATED_UNIVERSAL_TIME_OFFSET(5,0,.BEHIND.);
#71=COORDINATED_UNIVERSAL_TIME_OFFSET(5,0,.BEHIND.);
#72=COORDINATED_UNIVERSAL_TIME_OFFSET(5,0,.BEHIND.);
#73=COORDINATED_UNIVERSAL_TIME_OFFSET(5,0,.BEHIND.);
#74=COORDINATED_UNIVERSAL_TIME_OFFSET(5,0,.BEHIND.);
#75=LOCAL_TIME(6,17,0.,#70);
#76=LOCAL_TIME(6,17,0.,#71);
#77=LOCAL_TIME(6,17,0.,#72);
#78=LOCAL_TIME(6,17,0.,#73);
#79=LOCAL_TIME(6,17,0.,#74);
#80=CALENDAR_DATE(2018,23,6);
#81=CALENDAR_DATE(2018,23,6);
#82=CALENDAR_DATE(2018,23,6);
#83=CALENDAR_DATE(2018,23,6);
#84=CALENDAR_DATE(2018,23,6);
#85=DATE_AND_TIME(#80,#75);
#86=DATE_AND_TIME(#81,#76);
#87=DATE_AND_TIME(#82,#77);
#88=DATE_AND_TIME(#83,#78);
#89=DATE_AND_TIME(#84,#79);
#90=APPROVAL_STATUS('not_yet_approved');
#91=APPROVAL_STATUS('not_yet_approved');
#92=APPROVAL_STATUS('not_yet_approved');
#93=APPROVAL(#90,'defintion approval');
#94=APPROVAL(#91,'version approval');
#95=APPROVAL(#92,'security approval');
#96=PRODUCT_DEFINITION('DefinitionID','DefinitionDesc',#97,#19);
#97=PRODUCT_DEFINITION_FORMATION_WITH_SPECIFIED_SOURCE(
'PRODUCT_VERSION_ID','PRODUCT_VERSION_DESCR',#98,.NOT_KNOWN.);
#98=PRODUCT('ID_1','PB-2418-2','',(#10));
#99=(
LENGTH_UNIT()
NAMED_UNIT(*)
SI_UNIT(.CENTI.,.METRE.)
);
#100=(
NAMED_UNIT(*)
PLANE_ANGLE_UNIT()
SI_UNIT($,.RADIAN.)
);
#101=(
NAMED_UNIT(*)
SI_UNIT($,.STERADIAN.)
SOLID_ANGLE_UNIT()
);
#102=UNCERTAINTY_MEASURE_WITH_UNIT(LENGTH_MEASURE(1.E-6),#99,
'DISTANCE_ACCURACY_VALUE',
'Maximum model space distance between geometric entities at asserted c
onnectivities');
#103=(
GEOMETRIC_REPRESENTATION_CONTEXT(3)
GLOBAL_UNCERTAINTY_ASSIGNED_CONTEXT((#102))
GLOBAL_UNIT_ASSIGNED_CONTEXT((#101,#100,#99))
REPRESENTATION_CONTEXT('ID1','3D')
);
#104=PLANE('',#452);
#105=PLANE('',#456);
#106=PLANE('',#460);
#107=PLANE('',#464);
#108=PLANE('',#465);
#109=PLANE('',#466);
#110=PLANE('',#467);
#111=PLANE('',#469);
#112=PLANE('',#471);
#113=PLANE('',#472);
#114=PLANE('',#473);
#115=PLANE('',#475);
#116=PLANE('',#476);
#117=PLANE('',#477);
#118=PLANE('',#481);
#119=VECTOR('',#491,1.);
#120=VECTOR('',#494,1.);
#121=VECTOR('',#495,1.);
#122=VECTOR('',#498,1.);
#123=VECTOR('',#499,1.);
#124=VECTOR('',#502,1.);
#125=VECTOR('',#526,1.);
#126=VECTOR('',#527,1.);
#127=VECTOR('',#528,1.);
#128=VECTOR('',#530,1.);
#129=VECTOR('',#531,1.);
#130=VECTOR('',#532,1.);
#131=VECTOR('',#539,1.);
#132=VECTOR('',#541,1.);
#133=VECTOR('',#542,1.);
#134=VECTOR('',#544,1.);
#135=VECTOR('',#545,1.);
#136=VECTOR('',#546,1.);
#137=VECTOR('',#550,1.);
#138=VECTOR('',#552,1.);
#139=VECTOR('',#553,1.);
#140=VECTOR('',#555,1.);
#141=VECTOR('',#556,1.);
#142=VECTOR('',#557,1.);
#143=LINE('',#575,#119);
#144=LINE('',#579,#120);
#145=LINE('',#582,#121);
#146=LINE('',#586,#122);
#147=LINE('',#589,#123);
#148=LINE('',#593,#124);
#149=LINE('',#614,#125);
#150=LINE('',#616,#126);
#151=LINE('',#618,#127);
#152=LINE('',#620,#128);
#153=LINE('',#622,#129);
#154=LINE('',#624,#130);
#155=LINE('',#630,#131);
#156=LINE('',#632,#132);
#157=LINE('',#634,#133);
#158=LINE('',#636,#134);
#159=LINE('',#638,#135);
#160=LINE('',#640,#136);
#161=LINE('',#644,#137);
#162=LINE('',#646,#138);
#163=LINE('',#648,#139);
#164=LINE('',#650,#140);
#165=LINE('',#652,#141);
#166=LINE('',#654,#142);
#167=CYLINDRICAL_SURFACE('',#447,1.175);
#168=CYLINDRICAL_SURFACE('',#454,0.3);
#169=CYLINDRICAL_SURFACE('',#457,0.04);
#170=CYLINDRICAL_SURFACE('',#461,0.04);
#171=CYLINDRICAL_SURFACE('',#479,1.125);
#172=VERTEX_POINT('',#568);
#173=VERTEX_POINT('',#570);
#174=VERTEX_POINT('',#573);
#175=VERTEX_POINT('',#574);
#176=VERTEX_POINT('',#576);
#177=VERTEX_POINT('',#578);
#178=VERTEX_POINT('',#580);
#179=VERTEX_POINT('',#581);
#180=VERTEX_POINT('',#583);
#181=VERTEX_POINT('',#585);
#182=VERTEX_POINT('',#587);
#183=VERTEX_POINT('',#588);
#184=VERTEX_POINT('',#590);
#185=VERTEX_POINT('',#592);
#186=VERTEX_POINT('',#596);
#187=VERTEX_POINT('',#599);
#188=VERTEX_POINT('',#603);
#189=VERTEX_POINT('',#605);
#190=VERTEX_POINT('',#609);
#191=VERTEX_POINT('',#611);
#192=VERTEX_POINT('',#615);
#193=VERTEX_POINT('',#617);
#194=VERTEX_POINT('',#621);
#195=VERTEX_POINT('',#623);
#196=VERTEX_POINT('',#629);
#197=VERTEX_POINT('',#633);
#198=VERTEX_POINT('',#637);
#199=VERTEX_POINT('',#639);
#200=VERTEX_POINT('',#643);
#201=VERTEX_POINT('',#647);
#202=VERTEX_POINT('',#651);
#203=VERTEX_POINT('',#653);
#204=VERTEX_POINT('',#659);
#205=CIRCLE('',#445,1.125);
#206=CIRCLE('',#446,1.175);
#207=CIRCLE('',#448,1.175);
#208=CIRCLE('',#449,1.175);
#209=CIRCLE('',#450,1.175);
#210=CIRCLE('',#451,1.175);
#211=CIRCLE('',#453,0.3);
#212=CIRCLE('',#455,0.3);
#213=CIRCLE('',#458,0.04);
#214=CIRCLE('',#459,0.04);
#215=CIRCLE('',#462,0.04);
#216=CIRCLE('',#463,0.04);
#217=CIRCLE('',#468,1.125);
#218=CIRCLE('',#470,1.125);
#219=CIRCLE('',#474,1.125);
#220=CIRCLE('',#478,1.125);
#221=CIRCLE('',#480,1.125);
#222=EDGE_CURVE('',#172,#172,#205,.T.);
#223=EDGE_CURVE('',#173,#173,#206,.T.);
#224=EDGE_CURVE('',#174,#175,#207,.T.);
#225=EDGE_CURVE('',#175,#176,#143,.T.);
#226=EDGE_CURVE('',#176,#177,#208,.T.);
#227=EDGE_CURVE('',#178,#177,#144,.T.);
#228=EDGE_CURVE('',#178,#179,#207,.T.);
#229=EDGE_CURVE('',#179,#180,#145,.T.);
#230=EDGE_CURVE('',#180,#181,#209,.T.);
#231=EDGE_CURVE('',#182,#181,#146,.T.);
#232=EDGE_CURVE('',#182,#183,#207,.T.);
#233=EDGE_CURVE('',#183,#184,#147,.T.);
#234=EDGE_CURVE('',#184,#185,#210,.T.);
#235=EDGE_CURVE('',#174,#185,#148,.T.);
#236=EDGE_CURVE('',#186,#186,#211,.T.);
#237=EDGE_CURVE('',#187,#187,#212,.T.);
#238=EDGE_CURVE('',#188,#188,#213,.T.);
#239=EDGE_CURVE('',#189,#189,#214,.T.);
#240=EDGE_CURVE('',#190,#190,#215,.T.);
#241=EDGE_CURVE('',#191,#191,#216,.T.);
#242=EDGE_CURVE('',#192,#175,#149,.T.);
#243=EDGE_CURVE('',#192,#193,#150,.T.);
#244=EDGE_CURVE('',#193,#176,#151,.T.);
#245=EDGE_CURVE('',#178,#194,#152,.T.);
#246=EDGE_CURVE('',#177,#195,#153,.T.);
#247=EDGE_CURVE('',#194,#195,#154,.T.);
#248=EDGE_CURVE('',#195,#193,#217,.T.);
#249=EDGE_CURVE('',#194,#196,#218,.T.);
#250=EDGE_CURVE('',#196,#179,#155,.T.);
#251=EDGE_CURVE('',#196,#197,#156,.T.);
#252=EDGE_CURVE('',#197,#180,#157,.T.);
#253=EDGE_CURVE('',#182,#198,#158,.T.);
#254=EDGE_CURVE('',#181,#199,#159,.T.);
#255=EDGE_CURVE('',#198,#199,#160,.T.);
#256=EDGE_CURVE('',#199,#197,#219,.T.);
#257=EDGE_CURVE('',#198,#200,#218,.T.);
#258=EDGE_CURVE('',#200,#183,#161,.T.);
#259=EDGE_CURVE('',#200,#201,#162,.T.);
#260=EDGE_CURVE('',#201,#184,#163,.T.);
#261=EDGE_CURVE('',#174,#202,#164,.T.);
#262=EDGE_CURVE('',#185,#203,#165,.T.);
#263=EDGE_CURVE('',#202,#203,#166,.T.);
#264=EDGE_CURVE('',#203,#201,#220,.T.);
#265=EDGE_CURVE('',#202,#192,#218,.T.);
#266=EDGE_CURVE('',#204,#204,#221,.T.);
#267=ORIENTED_EDGE('',*,*,#222,.T.);
#268=ORIENTED_EDGE('',*,*,#223,.T.);
#269=ORIENTED_EDGE('',*,*,#224,.T.);
#270=ORIENTED_EDGE('',*,*,#225,.T.);
#271=ORIENTED_EDGE('',*,*,#226,.T.);
#272=ORIENTED_EDGE('',*,*,#227,.F.);
#273=ORIENTED_EDGE('',*,*,#228,.T.);
#274=ORIENTED_EDGE('',*,*,#229,.T.);
#275=ORIENTED_EDGE('',*,*,#230,.T.);
#276=ORIENTED_EDGE('',*,*,#231,.F.);
#277=ORIENTED_EDGE('',*,*,#232,.T.);
#278=ORIENTED_EDGE('',*,*,#233,.T.);
#279=ORIENTED_EDGE('',*,*,#234,.T.);
#280=ORIENTED_EDGE('',*,*,#235,.F.);
#281=ORIENTED_EDGE('',*,*,#223,.F.);
#282=ORIENTED_EDGE('',*,*,#236,.T.);
#283=ORIENTED_EDGE('',*,*,#222,.F.);
#284=ORIENTED_EDGE('',*,*,#237,.F.);
#285=ORIENTED_EDGE('',*,*,#236,.F.);
#286=ORIENTED_EDGE('',*,*,#237,.T.);
#287=ORIENTED_EDGE('',*,*,#238,.T.);
#288=ORIENTED_EDGE('',*,*,#239,.F.);
#289=ORIENTED_EDGE('',*,*,#238,.F.);
#290=ORIENTED_EDGE('',*,*,#240,.T.);
#291=ORIENTED_EDGE('',*,*,#241,.F.);
#292=ORIENTED_EDGE('',*,*,#240,.F.);
#293=ORIENTED_EDGE('',*,*,#242,.F.);
#294=ORIENTED_EDGE('',*,*,#243,.T.);
#295=ORIENTED_EDGE('',*,*,#244,.T.);
#296=ORIENTED_EDGE('',*,*,#225,.F.);
#297=ORIENTED_EDGE('',*,*,#245,.F.);
#298=ORIENTED_EDGE('',*,*,#227,.T.);
#299=ORIENTED_EDGE('',*,*,#246,.T.);
#300=ORIENTED_EDGE('',*,*,#247,.F.);
#301=ORIENTED_EDGE('',*,*,#244,.F.);
#302=ORIENTED_EDGE('',*,*,#248,.F.);
#303=ORIENTED_EDGE('',*,*,#246,.F.);
#304=ORIENTED_EDGE('',*,*,#226,.F.);
#305=ORIENTED_EDGE('',*,*,#245,.T.);
#306=ORIENTED_EDGE('',*,*,#249,.T.);
#307=ORIENTED_EDGE('',*,*,#250,.T.);
#308=ORIENTED_EDGE('',*,*,#228,.F.);
#309=ORIENTED_EDGE('',*,*,#250,.F.);
#310=ORIENTED_EDGE('',*,*,#251,.T.);
#311=ORIENTED_EDGE('',*,*,#252,.T.);
#312=ORIENTED_EDGE('',*,*,#229,.F.);
#313=ORIENTED_EDGE('',*,*,#253,.F.);
#314=ORIENTED_EDGE('',*,*,#231,.T.);
#315=ORIENTED_EDGE('',*,*,#254,.T.);
#316=ORIENTED_EDGE('',*,*,#255,.F.);
#317=ORIENTED_EDGE('',*,*,#252,.F.);
#318=ORIENTED_EDGE('',*,*,#256,.F.);
#319=ORIENTED_EDGE('',*,*,#254,.F.);
#320=ORIENTED_EDGE('',*,*,#230,.F.);
#321=ORIENTED_EDGE('',*,*,#253,.T.);
#322=ORIENTED_EDGE('',*,*,#257,.T.);
#323=ORIENTED_EDGE('',*,*,#258,.T.);
#324=ORIENTED_EDGE('',*,*,#232,.F.);
#325=ORIENTED_EDGE('',*,*,#258,.F.);
#326=ORIENTED_EDGE('',*,*,#259,.T.);
#327=ORIENTED_EDGE('',*,*,#260,.T.);
#328=ORIENTED_EDGE('',*,*,#233,.F.);
#329=ORIENTED_EDGE('',*,*,#261,.F.);
#330=ORIENTED_EDGE('',*,*,#235,.T.);
#331=ORIENTED_EDGE('',*,*,#262,.T.);
#332=ORIENTED_EDGE('',*,*,#263,.F.);
#333=ORIENTED_EDGE('',*,*,#260,.F.);
#334=ORIENTED_EDGE('',*,*,#264,.F.);
#335=ORIENTED_EDGE('',*,*,#262,.F.);
#336=ORIENTED_EDGE('',*,*,#234,.F.);
#337=ORIENTED_EDGE('',*,*,#249,.F.);
#338=ORIENTED_EDGE('',*,*,#247,.T.);
#339=ORIENTED_EDGE('',*,*,#248,.T.);
#340=ORIENTED_EDGE('',*,*,#243,.F.);
#341=ORIENTED_EDGE('',*,*,#265,.F.);
#342=ORIENTED_EDGE('',*,*,#263,.T.);
#343=ORIENTED_EDGE('',*,*,#264,.T.);
#344=ORIENTED_EDGE('',*,*,#259,.F.);
#345=ORIENTED_EDGE('',*,*,#257,.F.);
#346=ORIENTED_EDGE('',*,*,#255,.T.);
#347=ORIENTED_EDGE('',*,*,#256,.T.);
#348=ORIENTED_EDGE('',*,*,#251,.F.);
#349=ORIENTED_EDGE('',*,*,#266,.F.);
#350=ORIENTED_EDGE('',*,*,#239,.T.);
#351=ORIENTED_EDGE('',*,*,#241,.T.);
#352=ORIENTED_EDGE('',*,*,#266,.T.);
#353=ORIENTED_EDGE('',*,*,#242,.T.);
#354=ORIENTED_EDGE('',*,*,#224,.F.);
#355=ORIENTED_EDGE('',*,*,#261,.T.);
#356=ORIENTED_EDGE('',*,*,#265,.T.);
#357=EDGE_LOOP('',(#267));
#358=EDGE_LOOP('',(#268));
#359=EDGE_LOOP('',(#269,#270,#271,#272,#273,#274,#275,#276,#277,#278,#279,
#280));
#360=EDGE_LOOP('',(#281));
#361=EDGE_LOOP('',(#282));
#362=EDGE_LOOP('',(#283));
#363=EDGE_LOOP('',(#284));
#364=EDGE_LOOP('',(#285));
#365=EDGE_LOOP('',(#286));
#366=EDGE_LOOP('',(#287));
#367=EDGE_LOOP('',(#288));
#368=EDGE_LOOP('',(#289));
#369=EDGE_LOOP('',(#290));
#370=EDGE_LOOP('',(#291));
#371=EDGE_LOOP('',(#292));
#372=EDGE_LOOP('',(#293,#294,#295,#296));
#373=EDGE_LOOP('',(#297,#298,#299,#300));
#374=EDGE_LOOP('',(#301,#302,#303,#304));
#375=EDGE_LOOP('',(#305,#306,#307,#308));
#376=EDGE_LOOP('',(#309,#310,#311,#312));
#377=EDGE_LOOP('',(#313,#314,#315,#316));
#378=EDGE_LOOP('',(#317,#318,#319,#320));
#379=EDGE_LOOP('',(#321,#322,#323,#324));
#380=EDGE_LOOP('',(#325,#326,#327,#328));
#381=EDGE_LOOP('',(#329,#330,#331,#332));
#382=EDGE_LOOP('',(#333,#334,#335,#336));
#383=EDGE_LOOP('',(#337,#338,#339,#340,#341,#342,#343,#344,#345,#346,#347,
#348));
#384=EDGE_LOOP('',(#349));
#385=EDGE_LOOP('',(#350));
#386=EDGE_LOOP('',(#351));
#387=EDGE_LOOP('',(#352));
#388=EDGE_LOOP('',(#353,#354,#355,#356));
#389=FACE_BOUND('',#357,.T.);
#390=FACE_BOUND('',#358,.T.);
#391=FACE_BOUND('',#359,.T.);
#392=FACE_BOUND('',#360,.T.);
#393=FACE_BOUND('',#361,.T.);
#394=FACE_BOUND('',#362,.T.);
#395=FACE_BOUND('',#363,.T.);
#396=FACE_BOUND('',#364,.T.);
#397=FACE_BOUND('',#365,.T.);
#398=FACE_BOUND('',#366,.T.);
#399=FACE_BOUND('',#367,.T.);
#400=FACE_BOUND('',#368,.T.);
#401=FACE_BOUND('',#369,.T.);
#402=FACE_BOUND('',#370,.T.);
#403=FACE_BOUND('',#371,.T.);
#404=FACE_BOUND('',#372,.T.);
#405=FACE_BOUND('',#373,.T.);
#406=FACE_BOUND('',#374,.T.);
#407=FACE_BOUND('',#375,.T.);
#408=FACE_BOUND('',#376,.T.);
#409=FACE_BOUND('',#377,.T.);
#410=FACE_BOUND('',#378,.T.);
#411=FACE_BOUND('',#379,.T.);
#412=FACE_BOUND('',#380,.T.);
#413=FACE_BOUND('',#381,.T.);
#414=FACE_BOUND('',#382,.T.);
#415=FACE_BOUND('',#383,.T.);
#416=FACE_BOUND('',#384,.T.);
#417=FACE_BOUND('',#385,.T.);
#418=FACE_BOUND('',#386,.T.);
#419=FACE_BOUND('',#387,.T.);
#420=FACE_BOUND('',#388,.T.);
#421=ADVANCED_FACE('',(#389,#390),#661,.T.);
#422=ADVANCED_FACE('',(#391,#392),#167,.T.);
#423=ADVANCED_FACE('',(#393,#394),#104,.F.);
#424=ADVANCED_FACE('',(#395,#396),#168,.F.);
#425=ADVANCED_FACE('',(#397),#105,.T.);
#426=ADVANCED_FACE('',(#398,#399),#169,.T.);
#427=ADVANCED_FACE('',(#400),#106,.F.);
#428=ADVANCED_FACE('',(#401,#402),#170,.T.);
#429=ADVANCED_FACE('',(#403),#107,.T.);
#430=ADVANCED_FACE('',(#404),#108,.T.);
#431=ADVANCED_FACE('',(#405),#109,.T.);
#432=ADVANCED_FACE('',(#406),#110,.T.);
#433=ADVANCED_FACE('',(#407),#111,.T.);
#434=ADVANCED_FACE('',(#408),#112,.T.);
#435=ADVANCED_FACE('',(#409),#113,.T.);
#436=ADVANCED_FACE('',(#410),#114,.T.);
#437=ADVANCED_FACE('',(#411),#111,.T.);
#438=ADVANCED_FACE('',(#412),#115,.T.);
#439=ADVANCED_FACE('',(#413),#116,.T.);
#440=ADVANCED_FACE('',(#414),#117,.T.);
#441=ADVANCED_FACE('',(#415,#416),#171,.F.);
#442=ADVANCED_FACE('',(#417,#418,#419),#118,.T.);
#443=ADVANCED_FACE('',(#420),#111,.T.);
#444=AXIS2_PLACEMENT_3D('',#566,#482,$);
#445=AXIS2_PLACEMENT_3D('',#567,#483,#484);
#446=AXIS2_PLACEMENT_3D('',#569,#485,#486);
#447=AXIS2_PLACEMENT_3D('',#571,#487,#488);
#448=AXIS2_PLACEMENT_3D('',#572,#489,#490);
#449=AXIS2_PLACEMENT_3D('',#577,#492,#493);
#450=AXIS2_PLACEMENT_3D('',#584,#496,#497);
#451=AXIS2_PLACEMENT_3D('',#591,#500,#501);
#452=AXIS2_PLACEMENT_3D('',#594,#503,$);
#453=AXIS2_PLACEMENT_3D('',#595,#504,#505);
#454=AXIS2_PLACEMENT_3D('',#597,#506,#507);
#455=AXIS2_PLACEMENT_3D('',#598,#508,#509);
#456=AXIS2_PLACEMENT_3D('',#600,#510,$);
#457=AXIS2_PLACEMENT_3D('',#601,#511,#512);
#458=AXIS2_PLACEMENT_3D('',#602,#513,#514);
#459=AXIS2_PLACEMENT_3D('',#604,#515,#516);
#460=AXIS2_PLACEMENT_3D('',#606,#517,$);
#461=AXIS2_PLACEMENT_3D('',#607,#518,#519);
#462=AXIS2_PLACEMENT_3D('',#608,#520,#521);
#463=AXIS2_PLACEMENT_3D('',#610,#522,#523);
#464=AXIS2_PLACEMENT_3D('',#612,#524,$);
#465=AXIS2_PLACEMENT_3D('',#613,#525,$);
#466=AXIS2_PLACEMENT_3D('',#619,#529,$);
#467=AXIS2_PLACEMENT_3D('',#625,#533,$);
#468=AXIS2_PLACEMENT_3D('',#626,#534,#535);
#469=AXIS2_PLACEMENT_3D('',#627,#536,$);
#470=AXIS2_PLACEMENT_3D('',#628,#537,#538);
#471=AXIS2_PLACEMENT_3D('',#631,#540,$);
#472=AXIS2_PLACEMENT_3D('',#635,#543,$);
#473=AXIS2_PLACEMENT_3D('',#641,#547,$);
#474=AXIS2_PLACEMENT_3D('',#642,#548,#549);
#475=AXIS2_PLACEMENT_3D('',#645,#551,$);
#476=AXIS2_PLACEMENT_3D('',#649,#554,$);
#477=AXIS2_PLACEMENT_3D('',#655,#558,$);
#478=AXIS2_PLACEMENT_3D('',#656,#559,#560);
#479=AXIS2_PLACEMENT_3D('',#657,#561,#562);
#480=AXIS2_PLACEMENT_3D('',#658,#563,#564);
#481=AXIS2_PLACEMENT_3D('',#660,#565,$);
#482=DIRECTION('',(0.,0.,1.));
#483=DIRECTION('',(0.,0.,1.));
#484=DIRECTION('',(-1.125,1.37772764904077E-16,0.));
#485=DIRECTION('',(0.,0.,-1.));
#486=DIRECTION('',(-1.175,1.43895998899814E-16,0.));
#487=DIRECTION('',(0.,0.,1.));
#488=DIRECTION('',(1.175,0.,0.));
#489=DIRECTION('',(0.,0.,-1.));
#490=DIRECTION('',(1.175,0.,0.));
#491=DIRECTION('',(0.,0.,1.));
#492=DIRECTION('',(0.,0.,-1.));
#493=DIRECTION('',(-0.587500000000001,-1.01757984944672,0.));
#494=DIRECTION('',(0.,0.,1.));
#495=DIRECTION('',(0.,0.,1.));
#496=DIRECTION('',(0.,0.,-1.));
#497=DIRECTION('',(-0.5875,1.01757984944672,0.));
#498=DIRECTION('',(0.,0.,1.));
#499=DIRECTION('',(0.,0.,1.));
#500=DIRECTION('',(0.,0.,-1.));
#501=DIRECTION('',(1.175,0.,0.));
#502=DIRECTION('',(0.,0.,1.));
#503=DIRECTION('',(0.,0.,1.));
#504=DIRECTION('',(0.,0.,1.));
#505=DIRECTION('',(-0.3,0.,0.));
#506=DIRECTION('',(0.,0.,1.));
#507=DIRECTION('',(-0.3,0.,0.));
#508=DIRECTION('',(0.,0.,-1.));
#509=DIRECTION('',(-0.3,0.,0.));
#510=DIRECTION('',(0.,0.,-1.));
#511=DIRECTION('',(0.,0.,1.));
#512=DIRECTION('',(-0.04,0.,0.));
#513=DIRECTION('',(0.,0.,-1.));
#514=DIRECTION('',(-0.04,0.,0.));
#515=DIRECTION('',(0.,0.,-1.));
#516=DIRECTION('',(-0.04,0.,0.));
#517=DIRECTION('',(0.,0.,-1.));
#518=DIRECTION('',(0.,0.,1.));
#519=DIRECTION('',(0.04,0.,0.));
#520=DIRECTION('',(0.,0.,-1.));
#521=DIRECTION('',(0.04,0.,0.));
#522=DIRECTION('',(0.,0.,-1.));
#523=DIRECTION('',(0.04,0.,0.));
#524=DIRECTION('',(0.,0.,1.));
#525=DIRECTION('',(0.443702182718384,0.896174298365526,0.));
#526=DIRECTION('',(0.896174298365526,-0.443702182718384,0.));
#527=DIRECTION('',(0.,0.,1.));
#528=DIRECTION('',(0.896174298365526,-0.443702182718384,0.));
#529=DIRECTION('',(-0.554258617244055,-0.832344511131484,0.));
#530=DIRECTION('',(-0.832344511131484,0.554258617244055,0.));
#531=DIRECTION('',(-0.832344511131483,0.554258617244055,0.));
#532=DIRECTION('',(0.,0.,1.));
#533=DIRECTION('',(2.33566028696084E-28,-1.21787336457082E-28,1.));
#534=DIRECTION('',(0.,0.,1.));
#535=DIRECTION('',(-0.5625,-0.974278579257493,0.));
#536=DIRECTION('',(0.,0.,1.));
#537=DIRECTION('',(0.,0.,-1.));
#538=DIRECTION('',(1.125,0.,0.));
#539=DIRECTION('',(-0.832344511131485,-0.554258617244052,0.));
#540=DIRECTION('',(0.554258617244052,-0.832344511131485,0.));
#541=DIRECTION('',(0.,0.,1.));
#542=DIRECTION('',(-0.832344511131485,-0.554258617244052,0.));
#543=DIRECTION('',(-0.443702182718381,0.896174298365527,0.));
#544=DIRECTION('',(0.896174298365527,0.443702182718381,0.));
#545=DIRECTION('',(0.896174298365527,0.443702182718381,0.));
#546=DIRECTION('',(0.,0.,1.));
#547=DIRECTION('',(2.87651646508958E-28,1.69396341177711E-28,1.));
#548=DIRECTION('',(0.,0.,1.));
#549=DIRECTION('',(-0.5625,0.974278579257494,0.));
#550=DIRECTION('',(-0.0638297872340425,0.997960799962432,0.));
#551=DIRECTION('',(-0.997960799962432,-0.0638297872340425,0.));
#552=DIRECTION('',(0.,0.,1.));
#553=DIRECTION('',(-0.0638297872340425,0.997960799962432,0.));
#554=DIRECTION('',(0.997960799962432,-0.0638297872340425,0.));
#555=DIRECTION('',(-0.0638297872340425,-0.997960799962432,0.));
#556=DIRECTION('',(-0.0638297872340425,-0.997960799962432,0.));
#557=DIRECTION('',(0.,0.,1.));
#558=DIRECTION('',(-1.70652694969898E-31,-3.29672099706306E-28,1.));
#559=DIRECTION('',(0.,0.,1.));
#560=DIRECTION('',(1.125,0.,0.));
#561=DIRECTION('',(0.,0.,-1.));
#562=DIRECTION('',(1.125,0.,0.));
#563=DIRECTION('',(0.,0.,1.));
#564=DIRECTION('',(1.125,0.,0.));
#565=DIRECTION('',(0.,0.,1.));
#566=CARTESIAN_POINT('',(0.,0.,0.05));
#567=CARTESIAN_POINT('',(0.,0.,0.));
#568=CARTESIAN_POINT('',(1.125,0.,0.));
#569=CARTESIAN_POINT('',(0.,0.,0.05));
#570=CARTESIAN_POINT('',(1.175,-2.87791997799628E-16,0.05));
#571=CARTESIAN_POINT('',(0.,0.,0.));
#572=CARTESIAN_POINT('',(0.,0.,1.7));
#573=CARTESIAN_POINT('',(0.075,1.17260393995586,1.7));
#574=CARTESIAN_POINT('',(1.05300480057949,-0.521350064694096,1.7));
#575=CARTESIAN_POINT('',(1.0530048005795,-0.521350064694096,1.6));
#576=CARTESIAN_POINT('',(1.0530048005795,-0.521350064694096,1.75));
#577=CARTESIAN_POINT('',(0.,0.,1.75));
#578=CARTESIAN_POINT('',(0.978004800579495,-0.651253875261762,1.75));
#579=CARTESIAN_POINT('',(0.978004800579495,-0.651253875261762,1.6));
#580=CARTESIAN_POINT('',(0.978004800579495,-0.651253875261762,1.7));
#581=CARTESIAN_POINT('',(-0.978004800579495,-0.651253875261761,1.7));
#582=CARTESIAN_POINT('',(-0.978004800579495,-0.651253875261762,1.6));
#583=CARTESIAN_POINT('',(-0.978004800579495,-0.651253875261762,1.75));
#584=CARTESIAN_POINT('',(0.,0.,1.75));
#585=CARTESIAN_POINT('',(-1.0530048005795,-0.521350064694096,1.75));
#586=CARTESIAN_POINT('',(-1.0530048005795,-0.521350064694096,1.6));
#587=CARTESIAN_POINT('',(-1.0530048005795,-0.521350064694096,1.7));
#588=CARTESIAN_POINT('',(-0.075,1.17260393995586,1.7));
#589=CARTESIAN_POINT('',(-0.0750000000000004,1.17260393995586,1.6));
#590=CARTESIAN_POINT('',(-0.0750000000000004,1.17260393995586,1.75));
#591=CARTESIAN_POINT('',(0.,0.,1.75));
#592=CARTESIAN_POINT('',(0.075,1.17260393995586,1.75));
#593=CARTESIAN_POINT('',(0.075,1.17260393995586,1.6));
#594=CARTESIAN_POINT('',(0.,0.,0.));
#595=CARTESIAN_POINT('',(0.,0.,0.));
#596=CARTESIAN_POINT('',(-0.3,0.,0.));
#597=CARTESIAN_POINT('',(0.,0.,0.));
#598=CARTESIAN_POINT('',(0.,0.,0.6));
#599=CARTESIAN_POINT('',(-0.3,0.,0.6));
#600=CARTESIAN_POINT('',(0.,0.,0.6));
#601=CARTESIAN_POINT('',(0.75,0.,1.6));
#602=CARTESIAN_POINT('',(0.75,0.,2.2));
#603=CARTESIAN_POINT('',(0.71,0.,2.2));
#604=CARTESIAN_POINT('',(0.75,0.,1.6));
#605=CARTESIAN_POINT('',(0.71,0.,1.6));
#606=CARTESIAN_POINT('',(0.75,0.,2.2));
#607=CARTESIAN_POINT('',(-0.75,0.,1.6));
#608=CARTESIAN_POINT('',(-0.75,0.,2.2));
#609=CARTESIAN_POINT('',(-0.71,0.,2.2));
#610=CARTESIAN_POINT('',(-0.75,0.,1.6));
#611=CARTESIAN_POINT('',(-0.71,0.,1.6));
#612=CARTESIAN_POINT('',(-0.75,0.,2.2));
#613=CARTESIAN_POINT('',(1.03060044312036,-0.510257510126137,1.6));
#614=CARTESIAN_POINT('',(0.51530022156018,-0.255128755063066,1.7));
#615=CARTESIAN_POINT('',(1.00819608566122,-0.499164955558177,1.7));
#616=CARTESIAN_POINT('',(1.00819608566122,-0.499164955558177,1.6));
#617=CARTESIAN_POINT('',(1.00819608566122,-0.499164955558177,1.75));
#618=CARTESIAN_POINT('',(1.05300480057949,-0.521350064694096,1.75));
#619=CARTESIAN_POINT('',(0.957196187801208,-0.637397409830661,1.6));
#620=CARTESIAN_POINT('',(0.478598093900605,-0.318698704915329,1.7));
#621=CARTESIAN_POINT('',(0.936387575022921,-0.623540944399559,1.7));
#622=CARTESIAN_POINT('',(0.93638757502292,-0.623540944399559,1.75));
#623=CARTESIAN_POINT('',(0.93638757502292,-0.62354094439956,1.75));
#624=CARTESIAN_POINT('',(0.93638757502292,-0.62354094439956,1.6));
#625=CARTESIAN_POINT('',(0.995158243173478,-0.574554879582483,1.75));
#626=CARTESIAN_POINT('',(0.,0.,1.75));
#627=CARTESIAN_POINT('',(0.,0.,1.7));
#628=CARTESIAN_POINT('',(0.,0.,1.7));
#629=CARTESIAN_POINT('',(-0.936387575022921,-0.623540944399559,1.7));
#630=CARTESIAN_POINT('',(-0.478598093900604,-0.31869870491533,1.7));
#631=CARTESIAN_POINT('',(-0.957196187801208,-0.63739740983066,1.6));
#632=CARTESIAN_POINT('',(-0.936387575022921,-0.623540944399559,1.6));
#633=CARTESIAN_POINT('',(-0.936387575022921,-0.623540944399559,1.75));
#634=CARTESIAN_POINT('',(-0.978004800579495,-0.651253875261761,1.75));
#635=CARTESIAN_POINT('',(-1.03060044312036,-0.510257510126136,1.6));
#636=CARTESIAN_POINT('',(-0.515300221560179,-0.255128755063067,1.7));
#637=CARTESIAN_POINT('',(-1.00819608566122,-0.499164955558177,1.7));
#638=CARTESIAN_POINT('',(-1.00819608566122,-0.499164955558177,1.75));
#639=CARTESIAN_POINT('',(-1.00819608566122,-0.499164955558176,1.75));
#640=CARTESIAN_POINT('',(-1.00819608566122,-0.499164955558176,1.6));
#641=CARTESIAN_POINT('',(-0.995158243173479,-0.574554879582482,1.75));
#642=CARTESIAN_POINT('',(0.,0.,1.75));
#643=CARTESIAN_POINT('',(-0.0718085106382979,1.12270589995774,1.7));
#644=CARTESIAN_POINT('',(-0.0367021276595745,0.573827459978398,1.7));
#645=CARTESIAN_POINT('',(-0.073404255319149,1.1476549199568,1.6));
#646=CARTESIAN_POINT('',(-0.0718085106382977,1.12270589995774,1.6));
#647=CARTESIAN_POINT('',(-0.0718085106382977,1.12270589995774,1.75));
#648=CARTESIAN_POINT('',(-0.0750000000000001,1.17260393995586,1.75));
#649=CARTESIAN_POINT('',(0.0734042553191489,1.1476549199568,1.6));
#650=CARTESIAN_POINT('',(0.0367021276595745,0.573827459978398,1.7));
#651=CARTESIAN_POINT('',(0.0718085106382978,1.12270589995774,1.7));
#652=CARTESIAN_POINT('',(0.0718085106382978,1.12270589995774,1.75));
#653=CARTESIAN_POINT('',(0.0718085106382984,1.12270589995774,1.75));
#654=CARTESIAN_POINT('',(0.0718085106382984,1.12270589995774,1.6));
#655=CARTESIAN_POINT('',(2.09901540593194E-16,1.14910975916497,1.75));
#656=CARTESIAN_POINT('',(0.,0.,1.75));
#657=CARTESIAN_POINT('',(0.,0.,1.7));
#658=CARTESIAN_POINT('',(0.,0.,1.6));
#659=CARTESIAN_POINT('',(1.125,0.,1.6));
#660=CARTESIAN_POINT('',(0.,0.,1.6));
#661=TOROIDAL_SURFACE('',#444,1.125,0.05);
#662=CLOSED_SHELL('',(#421,#422,#423,#424,#425,#426,#427,#428,#429,#430,
#431,#432,#433,#434,#435,#436,#437,#438,#439,#440,#441,#442,#443));
#663=MANIFOLD_SOLID_BREP('',#662);
#664=ADVANCED_BREP_SHAPE_REPRESENTATION('',(#663),#103);
ENDSEC;
END-ISO-10303-21;
