ISO-10303-21;
HEADER;
/* Generated by software containing ST-Developer
 * from STEP Tools, Inc. (www.steptools.com) 
 */

FILE_DESCRIPTION(
/* description */ ('Alibre Inc.'),
/* implementation_level */ '2;1');

FILE_NAME(
/* name */ 'export0',
/* time_stamp */ '2018-04-20T08:20:46-05:00',
/* author */ (''),
/* organization */ (''),
/* preprocessor_version */ 'ST-DEVELOPER v14',
/* originating_system */ 'Alibre',
/* authorisation */ '');

FILE_SCHEMA (('AUTOMOTIVE_DESIGN'));
ENDSEC;

DATA;
#10=STYLED_ITEM('NAME_0',(#18),#235);
#11=MECHANICAL_DESIGN_GEOMETRIC_PRESENTATION_REPRESENTATION('NAME_0',(#10),
#33);
#12=COLOUR_RGB('',0.882352941176471,0.882352941176471,0.882352941176471);
#13=FILL_AREA_STYLE_COLOUR('NAME_0',#12);
#14=FILL_AREA_STYLE('NAME_0',(#13));
#15=SURFACE_STYLE_FILL_AREA(#14);
#16=SURFACE_SIDE_STYLE('NAME_0',(#15));
#17=SURFACE_STYLE_USAGE(.POSITIVE.,#16);
#18=PRESENTATION_STYLE_ASSIGNMENT((#17));
#19=PRODUCT_DEFINITION_CONTEXT('part definition',#26,'design');
#20=SHAPE_DEFINITION_REPRESENTATION(#21,#236);
#21=PRODUCT_DEFINITION_SHAPE('PRODUCT_VERSION_ID',
'PRODUCT_VERSION_DESCR',#22);
#22=PRODUCT_DEFINITION('PRODUCT_VERSION_ID','PRODUCT_VERSION_DESCR',#23,
#19);
#23=PRODUCT_DEFINITION_FORMATION_WITH_SPECIFIED_SOURCE(
'PRODUCT_VERSION_ID','PRODUCT_VERSION_DESCR',#28,.MADE.);
#24=PRODUCT_RELATED_PRODUCT_CATEGORY('part','part',(#28));
#25=APPLICATION_PROTOCOL_DEFINITION('Draft International Standard',
'automotive_design',1994,#26);
#26=APPLICATION_CONTEXT('automotive_Design');
#27=PRODUCT_CONTEXT('3D Mechanical Parts',#26,'mechanical');
#28=PRODUCT('','GT-0601A','',(#27));
#29=(
LENGTH_UNIT()
NAMED_UNIT(*)
SI_UNIT(.CENTI.,.METRE.)
);
#30=(
NAMED_UNIT(*)
PLANE_ANGLE_UNIT()
SI_UNIT($,.RADIAN.)
);
#31=(
NAMED_UNIT(*)
SI_UNIT($,.STERADIAN.)
SOLID_ANGLE_UNIT()
);
#32=UNCERTAINTY_MEASURE_WITH_UNIT(LENGTH_MEASURE(1.E-006),#29,
'DISTANCE_ACCURACY_VALUE',
'Maximum model space distance between geometric entities at asserted co
nnectivities');
#33=(
GEOMETRIC_REPRESENTATION_CONTEXT(3)
GLOBAL_UNCERTAINTY_ASSIGNED_CONTEXT((#32))
GLOBAL_UNIT_ASSIGNED_CONTEXT((#31,#30,#29))
REPRESENTATION_CONTEXT('ID1','3D')
);
#34=PLANE('',#144);
#35=PLANE('',#148);
#36=PLANE('',#152);
#37=PLANE('',#156);
#38=PLANE('',#160);
#39=PLANE('',#161);
#40=VERTEX_POINT('',#200);
#41=VERTEX_POINT('',#202);
#42=VERTEX_POINT('',#206);
#43=VERTEX_POINT('',#208);
#44=VERTEX_POINT('',#212);
#45=VERTEX_POINT('',#214);
#46=VERTEX_POINT('',#218);
#47=VERTEX_POINT('',#220);
#48=VERTEX_POINT('',#224);
#49=VERTEX_POINT('',#226);
#50=CIRCLE('',#142,0.03);
#51=CIRCLE('',#143,0.03);
#52=CIRCLE('',#146,0.03);
#53=CIRCLE('',#147,0.03);
#54=CIRCLE('',#150,0.28);
#55=CIRCLE('',#151,0.28);
#56=CIRCLE('',#154,0.055);
#57=CIRCLE('',#155,0.055);
#58=CIRCLE('',#158,0.33);
#59=CIRCLE('',#159,0.33);
#60=EDGE_CURVE('',#40,#40,#50,.T.);
#61=EDGE_CURVE('',#41,#41,#51,.T.);
#62=EDGE_CURVE('',#42,#42,#52,.T.);
#63=EDGE_CURVE('',#43,#43,#53,.T.);
#64=EDGE_CURVE('',#44,#44,#54,.T.);
#65=EDGE_CURVE('',#45,#45,#55,.T.);
#66=EDGE_CURVE('',#46,#46,#56,.T.);
#67=EDGE_CURVE('',#47,#47,#57,.T.);
#68=EDGE_CURVE('',#48,#48,#58,.T.);
#69=EDGE_CURVE('',#49,#49,#59,.T.);
#70=ORIENTED_EDGE('',*,*,#60,.T.);
#71=ORIENTED_EDGE('',*,*,#61,.F.);
#72=ORIENTED_EDGE('',*,*,#60,.F.);
#73=ORIENTED_EDGE('',*,*,#62,.T.);
#74=ORIENTED_EDGE('',*,*,#63,.F.);
#75=ORIENTED_EDGE('',*,*,#62,.F.);
#76=ORIENTED_EDGE('',*,*,#64,.F.);
#77=ORIENTED_EDGE('',*,*,#65,.F.);
#78=ORIENTED_EDGE('',*,*,#61,.T.);
#79=ORIENTED_EDGE('',*,*,#63,.T.);
#80=ORIENTED_EDGE('',*,*,#64,.T.);
#81=ORIENTED_EDGE('',*,*,#66,.F.);
#82=ORIENTED_EDGE('',*,*,#67,.F.);
#83=ORIENTED_EDGE('',*,*,#66,.T.);
#84=ORIENTED_EDGE('',*,*,#68,.T.);
#85=ORIENTED_EDGE('',*,*,#69,.T.);
#86=ORIENTED_EDGE('',*,*,#67,.T.);
#87=ORIENTED_EDGE('',*,*,#68,.F.);
#88=ORIENTED_EDGE('',*,*,#65,.T.);
#89=ORIENTED_EDGE('',*,*,#69,.F.);
#90=EDGE_LOOP('',(#70));
#91=EDGE_LOOP('',(#71));
#92=EDGE_LOOP('',(#72));
#93=EDGE_LOOP('',(#73));
#94=EDGE_LOOP('',(#74));
#95=EDGE_LOOP('',(#75));
#96=EDGE_LOOP('',(#76));
#97=EDGE_LOOP('',(#77));
#98=EDGE_LOOP('',(#78));
#99=EDGE_LOOP('',(#79));
#100=EDGE_LOOP('',(#80));
#101=EDGE_LOOP('',(#81));
#102=EDGE_LOOP('',(#82));
#103=EDGE_LOOP('',(#83));
#104=EDGE_LOOP('',(#84));
#105=EDGE_LOOP('',(#85));
#106=EDGE_LOOP('',(#86));
#107=EDGE_LOOP('',(#87));
#108=EDGE_LOOP('',(#88));
#109=EDGE_LOOP('',(#89));
#110=FACE_BOUND('',#90,.T.);
#111=FACE_BOUND('',#91,.T.);
#112=FACE_BOUND('',#92,.T.);
#113=FACE_BOUND('',#93,.T.);
#114=FACE_BOUND('',#94,.T.);
#115=FACE_BOUND('',#95,.T.);
#116=FACE_BOUND('',#96,.T.);
#117=FACE_BOUND('',#97,.T.);
#118=FACE_BOUND('',#98,.T.);
#119=FACE_BOUND('',#99,.T.);
#120=FACE_BOUND('',#100,.T.);
#121=FACE_BOUND('',#101,.T.);
#122=FACE_BOUND('',#102,.T.);
#123=FACE_BOUND('',#103,.T.);
#124=FACE_BOUND('',#104,.T.);
#125=FACE_BOUND('',#105,.T.);
#126=FACE_BOUND('',#106,.T.);
#127=FACE_BOUND('',#107,.T.);
#128=FACE_BOUND('',#108,.T.);
#129=FACE_BOUND('',#109,.T.);
#130=ADVANCED_FACE('',(#110,#111),#229,.T.);
#131=ADVANCED_FACE('',(#112),#34,.F.);
#132=ADVANCED_FACE('',(#113,#114),#230,.T.);
#133=ADVANCED_FACE('',(#115),#35,.T.);
#134=ADVANCED_FACE('',(#116,#117),#231,.F.);
#135=ADVANCED_FACE('',(#118,#119,#120),#36,.T.);
#136=ADVANCED_FACE('',(#121,#122),#232,.F.);
#137=ADVANCED_FACE('',(#123),#37,.T.);
#138=ADVANCED_FACE('',(#124,#125),#233,.T.);
#139=ADVANCED_FACE('',(#126,#127),#38,.T.);
#140=ADVANCED_FACE('',(#128,#129),#39,.F.);
#141=AXIS2_PLACEMENT_3D('',#198,#162,#163);
#142=AXIS2_PLACEMENT_3D('',#199,#164,#165);
#143=AXIS2_PLACEMENT_3D('',#201,#166,#167);
#144=AXIS2_PLACEMENT_3D('',#203,#168,$);
#145=AXIS2_PLACEMENT_3D('',#204,#169,#170);
#146=AXIS2_PLACEMENT_3D('',#205,#171,#172);
#147=AXIS2_PLACEMENT_3D('',#207,#173,#174);
#148=AXIS2_PLACEMENT_3D('',#209,#175,$);
#149=AXIS2_PLACEMENT_3D('',#210,#176,#177);
#150=AXIS2_PLACEMENT_3D('',#211,#178,#179);
#151=AXIS2_PLACEMENT_3D('',#213,#180,#181);
#152=AXIS2_PLACEMENT_3D('',#215,#182,$);
#153=AXIS2_PLACEMENT_3D('',#216,#183,#184);
#154=AXIS2_PLACEMENT_3D('',#217,#185,#186);
#155=AXIS2_PLACEMENT_3D('',#219,#187,#188);
#156=AXIS2_PLACEMENT_3D('',#221,#189,$);
#157=AXIS2_PLACEMENT_3D('',#222,#190,#191);
#158=AXIS2_PLACEMENT_3D('',#223,#192,#193);
#159=AXIS2_PLACEMENT_3D('',#225,#194,#195);
#160=AXIS2_PLACEMENT_3D('',#227,#196,$);
#161=AXIS2_PLACEMENT_3D('',#228,#197,$);
#162=DIRECTION('',(0.,0.,-1.));
#163=DIRECTION('',(0.03,0.,0.));
#164=DIRECTION('',(0.,0.,1.));
#165=DIRECTION('',(0.03,0.,0.));
#166=DIRECTION('',(0.,0.,1.));
#167=DIRECTION('',(0.03,0.,0.));
#168=DIRECTION('',(0.,0.,1.));
#169=DIRECTION('',(0.,0.,-1.));
#170=DIRECTION('',(-0.03,0.,0.));
#171=DIRECTION('',(0.,0.,1.));
#172=DIRECTION('',(-0.03,0.,0.));
#173=DIRECTION('',(0.,0.,1.));
#174=DIRECTION('',(-0.03,0.,0.));
#175=DIRECTION('',(0.,0.,-1.));
#176=DIRECTION('',(0.,0.,1.));
#177=DIRECTION('',(-0.28,0.,0.));
#178=DIRECTION('',(0.,0.,-1.));
#179=DIRECTION('',(-0.28,0.,0.));
#180=DIRECTION('',(0.,0.,1.));
#181=DIRECTION('',(-0.28,0.,0.));
#182=DIRECTION('',(0.,0.,-1.));
#183=DIRECTION('',(0.,0.,-1.));
#184=DIRECTION('',(0.055,0.,0.));
#185=DIRECTION('',(0.,0.,1.));
#186=DIRECTION('',(0.055,0.,0.));
#187=DIRECTION('',(0.,0.,-1.));
#188=DIRECTION('',(0.055,0.,0.));
#189=DIRECTION('',(0.,0.,1.));
#190=DIRECTION('',(0.,0.,1.));
#191=DIRECTION('',(0.33,0.,0.));
#192=DIRECTION('',(0.,0.,-1.));
#193=DIRECTION('',(0.33,0.,0.));
#194=DIRECTION('',(0.,0.,1.));
#195=DIRECTION('',(0.33,0.,0.));
#196=DIRECTION('',(0.,0.,1.));
#197=DIRECTION('',(0.,0.,1.));
#198=CARTESIAN_POINT('',(-0.16,0.,0.05));
#199=CARTESIAN_POINT('',(-0.16,0.,-0.33));
#200=CARTESIAN_POINT('',(-0.13,0.,-0.33));
#201=CARTESIAN_POINT('',(-0.16,0.,0.05));
#202=CARTESIAN_POINT('',(-0.13,0.,0.05));
#203=CARTESIAN_POINT('',(-0.16,0.,-0.33));
#204=CARTESIAN_POINT('',(0.16,0.,0.05));
#205=CARTESIAN_POINT('',(0.16,0.,-0.33));
#206=CARTESIAN_POINT('',(0.13,0.,-0.33));
#207=CARTESIAN_POINT('',(0.16,0.,0.05));
#208=CARTESIAN_POINT('',(0.13,0.,0.05));
#209=CARTESIAN_POINT('',(0.16,0.,-0.33));
#210=CARTESIAN_POINT('',(0.,0.,0.));
#211=CARTESIAN_POINT('',(0.,0.,0.05));
#212=CARTESIAN_POINT('',(-0.28,0.,0.05));
#213=CARTESIAN_POINT('',(0.,0.,0.));
#214=CARTESIAN_POINT('',(-0.28,0.,0.));
#215=CARTESIAN_POINT('',(0.,0.,0.05));
#216=CARTESIAN_POINT('',(0.,0.,0.35));
#217=CARTESIAN_POINT('',(0.,0.,0.15));
#218=CARTESIAN_POINT('',(0.055,0.,0.15));
#219=CARTESIAN_POINT('',(0.,0.,0.35));
#220=CARTESIAN_POINT('',(0.055,0.,0.35));
#221=CARTESIAN_POINT('',(0.,0.,0.15));
#222=CARTESIAN_POINT('',(0.,0.,0.));
#223=CARTESIAN_POINT('',(0.,0.,0.35));
#224=CARTESIAN_POINT('',(0.33,0.,0.35));
#225=CARTESIAN_POINT('',(0.,0.,0.));
#226=CARTESIAN_POINT('',(0.33,0.,0.));
#227=CARTESIAN_POINT('',(0.,0.,0.35));
#228=CARTESIAN_POINT('',(0.,0.,0.));
#229=CYLINDRICAL_SURFACE('',#141,0.03);
#230=CYLINDRICAL_SURFACE('',#145,0.03);
#231=CYLINDRICAL_SURFACE('',#149,0.28);
#232=CYLINDRICAL_SURFACE('',#153,0.055);
#233=CYLINDRICAL_SURFACE('',#157,0.33);
#234=CLOSED_SHELL('',(#130,#131,#132,#133,#134,#135,#136,#137,#138,#139,
#140));
#235=MANIFOLD_SOLID_BREP('',#234);
#236=ADVANCED_BREP_SHAPE_REPRESENTATION('',(#235),#33);
ENDSEC;
END-ISO-10303-21;
