ISO-10303-21;
HEADER;
/* Generated by software containing ST-Developer
 * from STEP Tools, Inc. (www.steptools.com) 
 */

FILE_DESCRIPTION(
/* description */ ('Alibre Inc.'),
/* implementation_level */ '2;1');

FILE_NAME(
/* name */ 'export0',
/* time_stamp */ '2018-03-20T18:59:30-05:00',
/* author */ (''),
/* organization */ (''),
/* preprocessor_version */ 'ST-DEVELOPER v14',
/* originating_system */ 'Alibre',
/* authorisation */ '');

FILE_SCHEMA (('AUTOMOTIVE_DESIGN'));
ENDSEC;

DATA;
#10=STYLED_ITEM('NAME_0',(#18),#632);
#11=MECHANICAL_DESIGN_GEOMETRIC_PRESENTATION_REPRESENTATION('NAME_0',(#10),
#33);
#12=COLOUR_RGB('',0.882352941176471,0.882352941176471,0.882352941176471);
#13=FILL_AREA_STYLE_COLOUR('NAME_0',#12);
#14=FILL_AREA_STYLE('NAME_0',(#13));
#15=SURFACE_STYLE_FILL_AREA(#14);
#16=SURFACE_SIDE_STYLE('NAME_0',(#15));
#17=SURFACE_STYLE_USAGE(.POSITIVE.,#16);
#18=PRESENTATION_STYLE_ASSIGNMENT((#17));
#19=PRODUCT_DEFINITION_CONTEXT('part definition',#26,'design');
#20=SHAPE_DEFINITION_REPRESENTATION(#21,#633);
#21=PRODUCT_DEFINITION_SHAPE('PRODUCT_VERSION_ID',
'PRODUCT_VERSION_DESCR',#22);
#22=PRODUCT_DEFINITION('PRODUCT_VERSION_ID','PRODUCT_VERSION_DESCR',#23,
#19);
#23=PRODUCT_DEFINITION_FORMATION_WITH_SPECIFIED_SOURCE(
'PRODUCT_VERSION_ID','PRODUCT_VERSION_DESCR',#28,.MADE.);
#24=PRODUCT_RELATED_PRODUCT_CATEGORY('part','part',(#28));
#25=APPLICATION_PROTOCOL_DEFINITION('Draft International Standard',
'automotive_design',1994,#26);
#26=APPLICATION_CONTEXT('automotive_Design');
#27=PRODUCT_CONTEXT('3D Mechanical Parts',#26,'mechanical');
#28=PRODUCT('','SP-4005-1','',(#27));
#29=(
LENGTH_UNIT()
NAMED_UNIT(*)
SI_UNIT(.CENTI.,.METRE.)
);
#30=(
NAMED_UNIT(*)
PLANE_ANGLE_UNIT()
SI_UNIT($,.RADIAN.)
);
#31=(
NAMED_UNIT(*)
SI_UNIT($,.STERADIAN.)
SOLID_ANGLE_UNIT()
);
#32=UNCERTAINTY_MEASURE_WITH_UNIT(LENGTH_MEASURE(1.E-006),#29,
'DISTANCE_ACCURACY_VALUE',
'Maximum model space distance between geometric entities at asserted co
nnectivities');
#33=(
GEOMETRIC_REPRESENTATION_CONTEXT(3)
GLOBAL_UNCERTAINTY_ASSIGNED_CONTEXT((#32))
GLOBAL_UNIT_ASSIGNED_CONTEXT((#31,#30,#29))
REPRESENTATION_CONTEXT('ID1','3D')
);
#34=CIRCLE('',#378,1.75);
#35=CIRCLE('',#379,1.75);
#36=CIRCLE('',#381,0.825);
#37=CIRCLE('',#382,0.825);
#38=CIRCLE('',#386,0.80995);
#39=CIRCLE('',#387,0.80995);
#40=CIRCLE('',#390,1.775);
#41=CIRCLE('',#391,1.8);
#42=CIRCLE('',#393,1.875);
#43=CIRCLE('',#394,1.875);
#44=CIRCLE('',#396,1.775);
#45=CIRCLE('',#399,1.9);
#46=CIRCLE('',#400,1.9);
#47=CIRCLE('',#402,2.);
#48=CIRCLE('',#404,1.8);
#49=CIRCLE('',#407,2.);
#50=CIRCLE('',#408,1.8125);
#51=CIRCLE('',#412,1.8125);
#52=CIRCLE('',#413,0.81);
#53=CIRCLE('',#416,0.81);
#54=CYLINDRICAL_SURFACE('',#377,1.75);
#55=CYLINDRICAL_SURFACE('',#380,0.825);
#56=CYLINDRICAL_SURFACE('',#385,0.80995);
#57=CYLINDRICAL_SURFACE('',#392,1.875);
#58=CYLINDRICAL_SURFACE('',#395,1.775);
#59=CYLINDRICAL_SURFACE('',#398,1.9);
#60=CYLINDRICAL_SURFACE('',#403,1.8);
#61=CYLINDRICAL_SURFACE('',#409,2.);
#62=CYLINDRICAL_SURFACE('',#414,1.8125);
#63=CYLINDRICAL_SURFACE('',#415,0.81);
#64=VERTEX_POINT('',#517);
#65=VERTEX_POINT('',#518);
#66=VERTEX_POINT('',#520);
#67=VERTEX_POINT('',#522);
#68=VERTEX_POINT('',#526);
#69=VERTEX_POINT('',#528);
#70=VERTEX_POINT('',#532);
#71=VERTEX_POINT('',#534);
#72=VERTEX_POINT('',#542);
#73=VERTEX_POINT('',#543);
#74=VERTEX_POINT('',#545);
#75=VERTEX_POINT('',#547);
#76=VERTEX_POINT('',#551);
#77=VERTEX_POINT('',#553);
#78=VERTEX_POINT('',#557);
#79=VERTEX_POINT('',#559);
#80=VERTEX_POINT('',#567);
#81=VERTEX_POINT('',#569);
#82=VERTEX_POINT('',#573);
#83=VERTEX_POINT('',#575);
#84=VERTEX_POINT('',#578);
#85=VERTEX_POINT('',#580);
#86=VERTEX_POINT('',#583);
#87=VERTEX_POINT('',#587);
#88=VERTEX_POINT('',#589);
#89=VERTEX_POINT('',#592);
#90=VERTEX_POINT('',#595);
#91=VERTEX_POINT('',#599);
#92=VERTEX_POINT('',#601);
#93=VERTEX_POINT('',#606);
#94=VERTEX_POINT('',#608);
#95=VERTEX_POINT('',#612);
#96=VECTOR('',#419,1.);
#97=VECTOR('',#420,1.);
#98=VECTOR('',#421,1.);
#99=VECTOR('',#422,1.);
#100=VECTOR('',#424,1.);
#101=VECTOR('',#425,1.);
#102=VECTOR('',#426,1.);
#103=VECTOR('',#428,1.);
#104=VECTOR('',#429,1.);
#105=VECTOR('',#430,1.);
#106=VECTOR('',#432,1.);
#107=VECTOR('',#433,1.);
#108=VECTOR('',#436,1.);
#109=VECTOR('',#437,1.);
#110=VECTOR('',#438,1.);
#111=VECTOR('',#439,1.);
#112=VECTOR('',#444,1.);
#113=VECTOR('',#453,1.);
#114=VECTOR('',#455,1.);
#115=VECTOR('',#457,1.);
#116=LINE('',#516,#96);
#117=LINE('',#519,#97);
#118=LINE('',#521,#98);
#119=LINE('',#523,#99);
#120=LINE('',#525,#100);
#121=LINE('',#527,#101);
#122=LINE('',#529,#102);
#123=LINE('',#531,#103);
#124=LINE('',#533,#104);
#125=LINE('',#535,#105);
#126=LINE('',#537,#106);
#127=LINE('',#538,#107);
#128=LINE('',#541,#108);
#129=LINE('',#544,#109);
#130=LINE('',#546,#110);
#131=LINE('',#548,#111);
#132=LINE('',#552,#112);
#133=LINE('',#560,#113);
#134=LINE('',#562,#114);
#135=LINE('',#564,#115);
#136=EDGE_CURVE('',#64,#65,#116,.T.);
#137=EDGE_CURVE('',#66,#65,#117,.T.);
#138=EDGE_CURVE('',#67,#66,#118,.T.);
#139=EDGE_CURVE('',#67,#64,#119,.T.);
#140=EDGE_CURVE('',#65,#68,#120,.T.);
#141=EDGE_CURVE('',#69,#68,#121,.T.);
#142=EDGE_CURVE('',#66,#69,#122,.T.);
#143=EDGE_CURVE('',#68,#70,#123,.T.);
#144=EDGE_CURVE('',#71,#70,#124,.T.);
#145=EDGE_CURVE('',#69,#71,#125,.T.);
#146=EDGE_CURVE('',#70,#64,#126,.T.);
#147=EDGE_CURVE('',#71,#67,#127,.T.);
#148=EDGE_CURVE('',#72,#73,#128,.T.);
#149=EDGE_CURVE('',#74,#72,#129,.T.);
#150=EDGE_CURVE('',#75,#74,#130,.T.);
#151=EDGE_CURVE('',#73,#75,#131,.T.);
#152=EDGE_CURVE('',#76,#72,#34,.T.);
#153=EDGE_CURVE('',#76,#77,#132,.T.);
#154=EDGE_CURVE('',#77,#74,#35,.T.);
#155=EDGE_CURVE('',#73,#78,#36,.T.);
#156=EDGE_CURVE('',#79,#75,#37,.T.);
#157=EDGE_CURVE('',#79,#78,#133,.T.);
#158=EDGE_CURVE('',#77,#79,#134,.T.);
#159=EDGE_CURVE('',#78,#76,#135,.T.);
#160=EDGE_CURVE('',#80,#80,#38,.T.);
#161=EDGE_CURVE('',#81,#81,#39,.T.);
#162=EDGE_CURVE('',#82,#82,#40,.T.);
#163=EDGE_CURVE('',#83,#83,#41,.T.);
#164=EDGE_CURVE('',#84,#84,#42,.T.);
#165=EDGE_CURVE('',#85,#85,#43,.T.);
#166=EDGE_CURVE('',#86,#86,#44,.T.);
#167=EDGE_CURVE('',#87,#87,#45,.T.);
#168=EDGE_CURVE('',#88,#88,#46,.T.);
#169=EDGE_CURVE('',#89,#89,#47,.T.);
#170=EDGE_CURVE('',#90,#90,#48,.T.);
#171=EDGE_CURVE('',#91,#91,#49,.T.);
#172=EDGE_CURVE('',#92,#92,#50,.T.);
#173=EDGE_CURVE('',#93,#93,#51,.T.);
#174=EDGE_CURVE('',#94,#94,#52,.T.);
#175=EDGE_CURVE('',#95,#95,#53,.T.);
#176=ORIENTED_EDGE('',*,*,#136,.T.);
#177=ORIENTED_EDGE('',*,*,#137,.F.);
#178=ORIENTED_EDGE('',*,*,#138,.F.);
#179=ORIENTED_EDGE('',*,*,#139,.T.);
#180=ORIENTED_EDGE('',*,*,#140,.T.);
#181=ORIENTED_EDGE('',*,*,#141,.F.);
#182=ORIENTED_EDGE('',*,*,#142,.F.);
#183=ORIENTED_EDGE('',*,*,#137,.T.);
#184=ORIENTED_EDGE('',*,*,#143,.T.);
#185=ORIENTED_EDGE('',*,*,#144,.F.);
#186=ORIENTED_EDGE('',*,*,#145,.F.);
#187=ORIENTED_EDGE('',*,*,#141,.T.);
#188=ORIENTED_EDGE('',*,*,#146,.T.);
#189=ORIENTED_EDGE('',*,*,#139,.F.);
#190=ORIENTED_EDGE('',*,*,#147,.F.);
#191=ORIENTED_EDGE('',*,*,#144,.T.);
#192=ORIENTED_EDGE('',*,*,#136,.F.);
#193=ORIENTED_EDGE('',*,*,#146,.F.);
#194=ORIENTED_EDGE('',*,*,#143,.F.);
#195=ORIENTED_EDGE('',*,*,#140,.F.);
#196=ORIENTED_EDGE('',*,*,#148,.F.);
#197=ORIENTED_EDGE('',*,*,#149,.F.);
#198=ORIENTED_EDGE('',*,*,#150,.F.);
#199=ORIENTED_EDGE('',*,*,#151,.F.);
#200=ORIENTED_EDGE('',*,*,#152,.F.);
#201=ORIENTED_EDGE('',*,*,#153,.T.);
#202=ORIENTED_EDGE('',*,*,#154,.T.);
#203=ORIENTED_EDGE('',*,*,#149,.T.);
#204=ORIENTED_EDGE('',*,*,#155,.F.);
#205=ORIENTED_EDGE('',*,*,#151,.T.);
#206=ORIENTED_EDGE('',*,*,#156,.F.);
#207=ORIENTED_EDGE('',*,*,#157,.T.);
#208=ORIENTED_EDGE('',*,*,#150,.T.);
#209=ORIENTED_EDGE('',*,*,#154,.F.);
#210=ORIENTED_EDGE('',*,*,#158,.T.);
#211=ORIENTED_EDGE('',*,*,#156,.T.);
#212=ORIENTED_EDGE('',*,*,#159,.F.);
#213=ORIENTED_EDGE('',*,*,#157,.F.);
#214=ORIENTED_EDGE('',*,*,#158,.F.);
#215=ORIENTED_EDGE('',*,*,#153,.F.);
#216=ORIENTED_EDGE('',*,*,#160,.T.);
#217=ORIENTED_EDGE('',*,*,#161,.F.);
#218=ORIENTED_EDGE('',*,*,#160,.F.);
#219=ORIENTED_EDGE('',*,*,#162,.T.);
#220=ORIENTED_EDGE('',*,*,#163,.T.);
#221=ORIENTED_EDGE('',*,*,#164,.T.);
#222=ORIENTED_EDGE('',*,*,#165,.F.);
#223=ORIENTED_EDGE('',*,*,#166,.T.);
#224=ORIENTED_EDGE('',*,*,#162,.F.);
#225=ORIENTED_EDGE('',*,*,#166,.F.);
#226=ORIENTED_EDGE('',*,*,#164,.F.);
#227=ORIENTED_EDGE('',*,*,#167,.F.);
#228=ORIENTED_EDGE('',*,*,#168,.F.);
#229=ORIENTED_EDGE('',*,*,#167,.T.);
#230=ORIENTED_EDGE('',*,*,#169,.F.);
#231=ORIENTED_EDGE('',*,*,#170,.F.);
#232=ORIENTED_EDGE('',*,*,#163,.F.);
#233=ORIENTED_EDGE('',*,*,#170,.T.);
#234=ORIENTED_EDGE('',*,*,#171,.F.);
#235=ORIENTED_EDGE('',*,*,#172,.F.);
#236=ORIENTED_EDGE('',*,*,#169,.T.);
#237=ORIENTED_EDGE('',*,*,#171,.T.);
#238=ORIENTED_EDGE('',*,*,#165,.T.);
#239=ORIENTED_EDGE('',*,*,#168,.T.);
#240=ORIENTED_EDGE('',*,*,#138,.T.);
#241=ORIENTED_EDGE('',*,*,#142,.T.);
#242=ORIENTED_EDGE('',*,*,#145,.T.);
#243=ORIENTED_EDGE('',*,*,#147,.T.);
#244=ORIENTED_EDGE('',*,*,#152,.T.);
#245=ORIENTED_EDGE('',*,*,#148,.T.);
#246=ORIENTED_EDGE('',*,*,#155,.T.);
#247=ORIENTED_EDGE('',*,*,#159,.T.);
#248=ORIENTED_EDGE('',*,*,#173,.F.);
#249=ORIENTED_EDGE('',*,*,#174,.F.);
#250=ORIENTED_EDGE('',*,*,#172,.T.);
#251=ORIENTED_EDGE('',*,*,#173,.T.);
#252=ORIENTED_EDGE('',*,*,#174,.T.);
#253=ORIENTED_EDGE('',*,*,#175,.T.);
#254=ORIENTED_EDGE('',*,*,#161,.T.);
#255=ORIENTED_EDGE('',*,*,#175,.F.);
#256=EDGE_LOOP('',(#176,#177,#178,#179));
#257=EDGE_LOOP('',(#180,#181,#182,#183));
#258=EDGE_LOOP('',(#184,#185,#186,#187));
#259=EDGE_LOOP('',(#188,#189,#190,#191));
#260=EDGE_LOOP('',(#192,#193,#194,#195));
#261=EDGE_LOOP('',(#196,#197,#198,#199));
#262=EDGE_LOOP('',(#200,#201,#202,#203));
#263=EDGE_LOOP('',(#204,#205,#206,#207));
#264=EDGE_LOOP('',(#208,#209,#210,#211));
#265=EDGE_LOOP('',(#212,#213,#214,#215));
#266=EDGE_LOOP('',(#216));
#267=EDGE_LOOP('',(#217));
#268=EDGE_LOOP('',(#218));
#269=EDGE_LOOP('',(#219));
#270=EDGE_LOOP('',(#220));
#271=EDGE_LOOP('',(#221));
#272=EDGE_LOOP('',(#222));
#273=EDGE_LOOP('',(#223));
#274=EDGE_LOOP('',(#224));
#275=EDGE_LOOP('',(#225));
#276=EDGE_LOOP('',(#226));
#277=EDGE_LOOP('',(#227));
#278=EDGE_LOOP('',(#228));
#279=EDGE_LOOP('',(#229));
#280=EDGE_LOOP('',(#230));
#281=EDGE_LOOP('',(#231));
#282=EDGE_LOOP('',(#232));
#283=EDGE_LOOP('',(#233));
#284=EDGE_LOOP('',(#234));
#285=EDGE_LOOP('',(#235));
#286=EDGE_LOOP('',(#236));
#287=EDGE_LOOP('',(#237));
#288=EDGE_LOOP('',(#238));
#289=EDGE_LOOP('',(#239));
#290=EDGE_LOOP('',(#240,#241,#242,#243));
#291=EDGE_LOOP('',(#244,#245,#246,#247));
#292=EDGE_LOOP('',(#248));
#293=EDGE_LOOP('',(#249));
#294=EDGE_LOOP('',(#250));
#295=EDGE_LOOP('',(#251));
#296=EDGE_LOOP('',(#252));
#297=EDGE_LOOP('',(#253));
#298=EDGE_LOOP('',(#254));
#299=EDGE_LOOP('',(#255));
#300=FACE_BOUND('',#256,.T.);
#301=FACE_BOUND('',#257,.T.);
#302=FACE_BOUND('',#258,.T.);
#303=FACE_BOUND('',#259,.T.);
#304=FACE_BOUND('',#260,.T.);
#305=FACE_BOUND('',#261,.T.);
#306=FACE_BOUND('',#262,.T.);
#307=FACE_BOUND('',#263,.T.);
#308=FACE_BOUND('',#264,.T.);
#309=FACE_BOUND('',#265,.T.);
#310=FACE_BOUND('',#266,.T.);
#311=FACE_BOUND('',#267,.T.);
#312=FACE_BOUND('',#268,.T.);
#313=FACE_BOUND('',#269,.T.);
#314=FACE_BOUND('',#270,.T.);
#315=FACE_BOUND('',#271,.T.);
#316=FACE_BOUND('',#272,.T.);
#317=FACE_BOUND('',#273,.T.);
#318=FACE_BOUND('',#274,.T.);
#319=FACE_BOUND('',#275,.T.);
#320=FACE_BOUND('',#276,.T.);
#321=FACE_BOUND('',#277,.T.);
#322=FACE_BOUND('',#278,.T.);
#323=FACE_BOUND('',#279,.T.);
#324=FACE_BOUND('',#280,.T.);
#325=FACE_BOUND('',#281,.T.);
#326=FACE_BOUND('',#282,.T.);
#327=FACE_BOUND('',#283,.T.);
#328=FACE_BOUND('',#284,.T.);
#329=FACE_BOUND('',#285,.T.);
#330=FACE_BOUND('',#286,.T.);
#331=FACE_BOUND('',#287,.T.);
#332=FACE_BOUND('',#288,.T.);
#333=FACE_BOUND('',#289,.T.);
#334=FACE_BOUND('',#290,.T.);
#335=FACE_BOUND('',#291,.T.);
#336=FACE_BOUND('',#292,.T.);
#337=FACE_BOUND('',#293,.T.);
#338=FACE_BOUND('',#294,.T.);
#339=FACE_BOUND('',#295,.T.);
#340=FACE_BOUND('',#296,.T.);
#341=FACE_BOUND('',#297,.T.);
#342=FACE_BOUND('',#298,.T.);
#343=FACE_BOUND('',#299,.T.);
#344=ADVANCED_FACE('',(#300),#614,.T.);
#345=ADVANCED_FACE('',(#301),#615,.T.);
#346=ADVANCED_FACE('',(#302),#616,.T.);
#347=ADVANCED_FACE('',(#303),#617,.T.);
#348=ADVANCED_FACE('',(#304),#618,.F.);
#349=ADVANCED_FACE('',(#305),#619,.T.);
#350=ADVANCED_FACE('',(#306),#54,.T.);
#351=ADVANCED_FACE('',(#307),#55,.F.);
#352=ADVANCED_FACE('',(#308),#620,.T.);
#353=ADVANCED_FACE('',(#309),#621,.F.);
#354=ADVANCED_FACE('',(#310,#311),#56,.T.);
#355=ADVANCED_FACE('',(#312),#622,.T.);
#356=ADVANCED_FACE('',(#313,#314),#623,.F.);
#357=ADVANCED_FACE('',(#315,#316),#57,.T.);
#358=ADVANCED_FACE('',(#317,#318),#58,.F.);
#359=ADVANCED_FACE('',(#319,#320),#624,.T.);
#360=ADVANCED_FACE('',(#321,#322),#59,.T.);
#361=ADVANCED_FACE('',(#323,#324),#625,.T.);
#362=ADVANCED_FACE('',(#325,#326),#60,.F.);
#363=ADVANCED_FACE('',(#327),#626,.T.);
#364=ADVANCED_FACE('',(#328,#329),#627,.F.);
#365=ADVANCED_FACE('',(#330,#331),#61,.T.);
#366=ADVANCED_FACE('',(#332,#333),#628,.T.);
#367=ADVANCED_FACE('',(#334,#335,#336,#337),#629,.F.);
#368=ADVANCED_FACE('',(#338,#339),#62,.T.);
#369=ADVANCED_FACE('',(#340,#341),#63,.T.);
#370=ADVANCED_FACE('',(#342,#343),#630,.F.);
#371=AXIS2_PLACEMENT_3D('',#515,#418,$);
#372=AXIS2_PLACEMENT_3D('',#524,#423,$);
#373=AXIS2_PLACEMENT_3D('',#530,#427,$);
#374=AXIS2_PLACEMENT_3D('',#536,#431,$);
#375=AXIS2_PLACEMENT_3D('',#539,#434,$);
#376=AXIS2_PLACEMENT_3D('',#540,#435,$);
#377=AXIS2_PLACEMENT_3D('',#549,#440,#441);
#378=AXIS2_PLACEMENT_3D('',#550,#442,#443);
#379=AXIS2_PLACEMENT_3D('',#554,#445,#446);
#380=AXIS2_PLACEMENT_3D('',#555,#447,#448);
#381=AXIS2_PLACEMENT_3D('',#556,#449,#450);
#382=AXIS2_PLACEMENT_3D('',#558,#451,#452);
#383=AXIS2_PLACEMENT_3D('',#561,#454,$);
#384=AXIS2_PLACEMENT_3D('',#563,#456,$);
#385=AXIS2_PLACEMENT_3D('',#565,#458,#459);
#386=AXIS2_PLACEMENT_3D('',#566,#460,#461);
#387=AXIS2_PLACEMENT_3D('',#568,#462,#463);
#388=AXIS2_PLACEMENT_3D('',#570,#464,$);
#389=AXIS2_PLACEMENT_3D('',#571,#465,$);
#390=AXIS2_PLACEMENT_3D('',#572,#466,#467);
#391=AXIS2_PLACEMENT_3D('',#574,#468,#469);
#392=AXIS2_PLACEMENT_3D('',#576,#470,#471);
#393=AXIS2_PLACEMENT_3D('',#577,#472,#473);
#394=AXIS2_PLACEMENT_3D('',#579,#474,#475);
#395=AXIS2_PLACEMENT_3D('',#581,#476,#477);
#396=AXIS2_PLACEMENT_3D('',#582,#478,#479);
#397=AXIS2_PLACEMENT_3D('',#584,#480,$);
#398=AXIS2_PLACEMENT_3D('',#585,#481,#482);
#399=AXIS2_PLACEMENT_3D('',#586,#483,#484);
#400=AXIS2_PLACEMENT_3D('',#588,#485,#486);
#401=AXIS2_PLACEMENT_3D('',#590,#487,$);
#402=AXIS2_PLACEMENT_3D('',#591,#488,#489);
#403=AXIS2_PLACEMENT_3D('',#593,#490,#491);
#404=AXIS2_PLACEMENT_3D('',#594,#492,#493);
#405=AXIS2_PLACEMENT_3D('',#596,#494,$);
#406=AXIS2_PLACEMENT_3D('',#597,#495,$);
#407=AXIS2_PLACEMENT_3D('',#598,#496,#497);
#408=AXIS2_PLACEMENT_3D('',#600,#498,#499);
#409=AXIS2_PLACEMENT_3D('',#602,#500,#501);
#410=AXIS2_PLACEMENT_3D('',#603,#502,$);
#411=AXIS2_PLACEMENT_3D('',#604,#503,$);
#412=AXIS2_PLACEMENT_3D('',#605,#504,#505);
#413=AXIS2_PLACEMENT_3D('',#607,#506,#507);
#414=AXIS2_PLACEMENT_3D('',#609,#508,#509);
#415=AXIS2_PLACEMENT_3D('',#610,#510,#511);
#416=AXIS2_PLACEMENT_3D('',#611,#512,#513);
#417=AXIS2_PLACEMENT_3D('',#613,#514,$);
#418=DIRECTION('',(0.380057732778015,0.924962766686117,0.));
#419=DIRECTION('',(-0.924962766686117,0.380057732778015,0.));
#420=DIRECTION('',(0.,0.,-1.));
#421=DIRECTION('',(-0.924962766686117,0.380057732778015,0.));
#422=DIRECTION('',(0.,0.,-1.));
#423=DIRECTION('',(-0.678277962819101,0.734805419926915,0.));
#424=DIRECTION('',(-0.734805419926915,-0.678277962819101,0.));
#425=DIRECTION('',(0.,0.,-1.));
#426=DIRECTION('',(-0.734805419926915,-0.678277962819101,0.));
#427=DIRECTION('',(-0.384613403195857,-0.923077748665897,0.));
#428=DIRECTION('',(0.923077748665897,-0.384613403195857,0.));
#429=DIRECTION('',(0.,0.,-1.));
#430=DIRECTION('',(0.923077748665897,-0.384613403195857,0.));
#431=DIRECTION('',(1.,0.,0.));
#432=DIRECTION('',(0.,1.,0.));
#433=DIRECTION('',(0.,1.,0.));
#434=DIRECTION('',(-1.11486438726277E-031,-2.13956057216124E-031,1.));
#435=DIRECTION('',(0.707106781186549,-0.707106781186546,0.));
#436=DIRECTION('',(0.707106781186546,0.707106781186549,0.));
#437=DIRECTION('',(0.,0.,1.));
#438=DIRECTION('',(-0.707106781186546,-0.707106781186549,-1.20024110770287E-016));
#439=DIRECTION('',(0.,0.,-1.));
#440=DIRECTION('',(0.,0.,1.));
#441=DIRECTION('',(0.,-1.75,0.));
#442=DIRECTION('',(0.,0.,1.));
#443=DIRECTION('',(0.,-1.75,0.));
#444=DIRECTION('',(0.,0.,-1.));
#445=DIRECTION('',(0.,0.,1.));
#446=DIRECTION('',(0.,-1.75,0.));
#447=DIRECTION('',(0.,0.,1.));
#448=DIRECTION('',(0.,-0.825,0.));
#449=DIRECTION('',(0.,0.,-1.));
#450=DIRECTION('',(0.,-0.825,0.));
#451=DIRECTION('',(0.,0.,1.));
#452=DIRECTION('',(0.,-0.825,0.));
#453=DIRECTION('',(0.,0.,1.));
#454=DIRECTION('',(0.,1.20024110770287E-016,-1.));
#455=DIRECTION('',(0.,1.,1.20024110770287E-016));
#456=DIRECTION('',(1.,0.,0.));
#457=DIRECTION('',(0.,-1.,0.));
#458=DIRECTION('',(0.,0.,-1.));
#459=DIRECTION('',(-0.80995,0.,0.));
#460=DIRECTION('',(0.,0.,1.));
#461=DIRECTION('',(-0.80995,0.,0.));
#462=DIRECTION('',(0.,0.,1.));
#463=DIRECTION('',(-0.80995,0.,0.));
#464=DIRECTION('',(0.,0.,-1.));
#465=DIRECTION('',(0.,0.,1.));
#466=DIRECTION('',(0.,0.,1.));
#467=DIRECTION('',(1.775,0.,0.));
#468=DIRECTION('',(0.,0.,-1.));
#469=DIRECTION('',(1.8,0.,0.));
#470=DIRECTION('',(0.,0.,1.));
#471=DIRECTION('',(1.875,0.,0.));
#472=DIRECTION('',(0.,0.,-1.));
#473=DIRECTION('',(1.875,0.,0.));
#474=DIRECTION('',(0.,0.,-1.));
#475=DIRECTION('',(1.875,0.,0.));
#476=DIRECTION('',(0.,0.,1.));
#477=DIRECTION('',(1.775,0.,0.));
#478=DIRECTION('',(0.,0.,1.));
#479=DIRECTION('',(1.775,0.,0.));
#480=DIRECTION('',(0.,0.,1.));
#481=DIRECTION('',(0.,0.,-1.));
#482=DIRECTION('',(1.9,0.,0.));
#483=DIRECTION('',(0.,0.,-1.));
#484=DIRECTION('',(1.9,0.,0.));
#485=DIRECTION('',(0.,0.,1.));
#486=DIRECTION('',(1.9,0.,0.));
#487=DIRECTION('',(0.,0.,1.));
#488=DIRECTION('',(0.,0.,-1.));
#489=DIRECTION('',(2.,0.,0.));
#490=DIRECTION('',(0.,0.,-1.));
#491=DIRECTION('',(1.8,0.,0.));
#492=DIRECTION('',(0.,0.,1.));
#493=DIRECTION('',(1.8,0.,0.));
#494=DIRECTION('',(0.,0.,1.));
#495=DIRECTION('',(0.,0.,1.));
#496=DIRECTION('',(0.,0.,1.));
#497=DIRECTION('',(2.,0.,0.));
#498=DIRECTION('',(0.,0.,-1.));
#499=DIRECTION('',(1.8125,0.,0.));
#500=DIRECTION('',(0.,0.,1.));
#501=DIRECTION('',(2.,0.,0.));
#502=DIRECTION('',(0.,0.,1.));
#503=DIRECTION('',(0.,0.,1.));
#504=DIRECTION('',(0.,0.,1.));
#505=DIRECTION('',(1.8125,0.,0.));
#506=DIRECTION('',(0.,0.,-1.));
#507=DIRECTION('',(0.81,0.,0.));
#508=DIRECTION('',(0.,0.,1.));
#509=DIRECTION('',(1.8125,0.,0.));
#510=DIRECTION('',(0.,0.,1.));
#511=DIRECTION('',(0.81,0.,0.));
#512=DIRECTION('',(0.,0.,1.));
#513=DIRECTION('',(0.81,0.,0.));
#514=DIRECTION('',(0.,0.,1.));
#515=CARTESIAN_POINT('',(-0.506165616415518,-1.23741581938842,0.17));
#516=CARTESIAN_POINT('',(-0.923749350413835,-1.06583493753631,-0.03));
#517=CARTESIAN_POINT('',(-0.088581882417202,-1.40899670124054,-0.0300000000000001));
#518=CARTESIAN_POINT('',(-0.923749350413835,-1.06583493753631,-0.0300000000000001));
#519=CARTESIAN_POINT('',(-0.923749350413835,-1.06583493753631,0.17));
#520=CARTESIAN_POINT('',(-0.923749350413835,-1.06583493753631,0.17));
#521=CARTESIAN_POINT('',(-0.5071391868355,-1.23701578926846,0.17));
#522=CARTESIAN_POINT('',(-0.088581882417202,-1.40899670124054,0.17));
#523=CARTESIAN_POINT('',(-0.088581882417202,-1.40899670124054,0.17));
#524=CARTESIAN_POINT('',(-1.03765691464402,-1.17097976706604,0.17));
#525=CARTESIAN_POINT('',(-1.15156447887421,-1.27612459659576,-0.03));
#526=CARTESIAN_POINT('',(-1.15156447887421,-1.27612459659576,-0.0300000000000001));
#527=CARTESIAN_POINT('',(-1.15156447887421,-1.27612459659576,0.17));
#528=CARTESIAN_POINT('',(-1.15156447887421,-1.27612459659576,0.17));
#529=CARTESIAN_POINT('',(-0.465711675332574,-0.64303340025394,0.17));
#530=CARTESIAN_POINT('',(-0.620073180645704,-1.49757796525955,0.17));
#531=CARTESIAN_POINT('',(-0.088581882417202,-1.71903133392334,-0.03));
#532=CARTESIAN_POINT('',(-0.088581882417202,-1.71903133392334,-0.0300000000000001));
#533=CARTESIAN_POINT('',(-0.088581882417202,-1.71903133392334,0.17));
#534=CARTESIAN_POINT('',(-0.088581882417202,-1.71903133392334,0.17));
#535=CARTESIAN_POINT('',(-0.621740629292925,-1.49688319919051,0.17));
#536=CARTESIAN_POINT('',(-0.088581882417202,-1.56401401758194,0.17));
#537=CARTESIAN_POINT('',(-0.088581882417202,-1.40899670124054,-0.03));
#538=CARTESIAN_POINT('',(-0.088581882417202,-0.78200700879097,0.17));
#539=CARTESIAN_POINT('',(-0.568414182565438,-1.37959005212188,-0.0300000000000001));
#540=CARTESIAN_POINT('',(-0.910399980777678,-0.910399980777681,0.17));
#541=CARTESIAN_POINT('',(-0.455199990388839,-0.455199990388841,0.17));
#542=CARTESIAN_POINT('',(-1.23743686707646,-1.23743686707646,0.17));
#543=CARTESIAN_POINT('',(-0.583363094478901,-0.583363094478903,0.17));
#544=CARTESIAN_POINT('',(-1.23743686707646,-1.23743686707646,0.175));
#545=CARTESIAN_POINT('',(-1.23743686707646,-1.23743686707646,0.165));
#546=CARTESIAN_POINT('',(-1.23743686707646,-1.23743686707646,0.165));
#547=CARTESIAN_POINT('',(-0.583363094478901,-0.583363094478903,0.165));
#548=CARTESIAN_POINT('',(-0.583363094478901,-0.583363094478903,0.165));
#549=CARTESIAN_POINT('',(0.,0.,0.17));
#550=CARTESIAN_POINT('',(0.,0.,0.17));
#551=CARTESIAN_POINT('',(0.,-1.75,0.17));
#552=CARTESIAN_POINT('',(0.,-1.75,0.175));
#553=CARTESIAN_POINT('',(0.,-1.75,0.165));
#554=CARTESIAN_POINT('',(0.,0.,0.165));
#555=CARTESIAN_POINT('',(0.,0.,0.17));
#556=CARTESIAN_POINT('',(0.,0.,0.17));
#557=CARTESIAN_POINT('',(0.,-0.825,0.17));
#558=CARTESIAN_POINT('',(0.,0.,0.165));
#559=CARTESIAN_POINT('',(0.,-0.825,0.165));
#560=CARTESIAN_POINT('',(0.,-0.825,0.165));
#561=CARTESIAN_POINT('',(0.,-1.2875,0.165));
#562=CARTESIAN_POINT('',(0.,-1.75,0.165));
#563=CARTESIAN_POINT('',(0.,-1.2875,0.17));
#564=CARTESIAN_POINT('',(0.,-0.64375,0.17));
#565=CARTESIAN_POINT('',(0.,0.,0.));
#566=CARTESIAN_POINT('',(0.,0.,-0.15));
#567=CARTESIAN_POINT('',(-0.80995,0.,-0.15));
#568=CARTESIAN_POINT('',(0.,0.,0.));
#569=CARTESIAN_POINT('',(-0.80995,0.,0.));
#570=CARTESIAN_POINT('',(0.,0.,-0.15));
#571=CARTESIAN_POINT('',(0.,0.,0.545));
#572=CARTESIAN_POINT('',(0.,0.,0.545));
#573=CARTESIAN_POINT('',(1.775,0.,0.545));
#574=CARTESIAN_POINT('',(0.,0.,0.545));
#575=CARTESIAN_POINT('',(1.8,0.,0.545));
#576=CARTESIAN_POINT('',(0.,0.,0.545));
#577=CARTESIAN_POINT('',(0.,0.,0.755));
#578=CARTESIAN_POINT('',(1.875,0.,0.755));
#579=CARTESIAN_POINT('',(0.,0.,0.545));
#580=CARTESIAN_POINT('',(1.875,0.,0.545));
#581=CARTESIAN_POINT('',(0.,0.,0.545));
#582=CARTESIAN_POINT('',(0.,0.,0.755));
#583=CARTESIAN_POINT('',(1.775,0.,0.755));
#584=CARTESIAN_POINT('',(0.,0.,0.755));
#585=CARTESIAN_POINT('',(0.,0.,0.545));
#586=CARTESIAN_POINT('',(0.,0.,0.445));
#587=CARTESIAN_POINT('',(1.9,0.,0.445));
#588=CARTESIAN_POINT('',(0.,0.,0.545));
#589=CARTESIAN_POINT('',(1.9,0.,0.545));
#590=CARTESIAN_POINT('',(0.,0.,0.445));
#591=CARTESIAN_POINT('',(0.,0.,0.445));
#592=CARTESIAN_POINT('',(2.,0.,0.445));
#593=CARTESIAN_POINT('',(0.,0.,0.545));
#594=CARTESIAN_POINT('',(0.,0.,0.295));
#595=CARTESIAN_POINT('',(1.8,0.,0.295));
#596=CARTESIAN_POINT('',(0.,0.,0.295));
#597=CARTESIAN_POINT('',(0.,0.,0.295));
#598=CARTESIAN_POINT('',(0.,0.,0.295));
#599=CARTESIAN_POINT('',(2.,0.,0.295));
#600=CARTESIAN_POINT('',(0.,0.,0.295));
#601=CARTESIAN_POINT('',(1.8125,0.,0.295));
#602=CARTESIAN_POINT('',(0.,0.,0.295));
#603=CARTESIAN_POINT('',(0.,0.,0.545));
#604=CARTESIAN_POINT('',(0.,0.,0.17));
#605=CARTESIAN_POINT('',(0.,0.,0.17));
#606=CARTESIAN_POINT('',(1.8125,0.,0.17));
#607=CARTESIAN_POINT('',(0.,0.,0.17));
#608=CARTESIAN_POINT('',(0.81,0.,0.17));
#609=CARTESIAN_POINT('',(0.,0.,0.17));
#610=CARTESIAN_POINT('',(0.,0.,0.));
#611=CARTESIAN_POINT('',(0.,0.,0.));
#612=CARTESIAN_POINT('',(0.81,0.,0.));
#613=CARTESIAN_POINT('',(0.,0.,0.));
#614=PLANE('',#371);
#615=PLANE('',#372);
#616=PLANE('',#373);
#617=PLANE('',#374);
#618=PLANE('',#375);
#619=PLANE('',#376);
#620=PLANE('',#383);
#621=PLANE('',#384);
#622=PLANE('',#388);
#623=PLANE('',#389);
#624=PLANE('',#397);
#625=PLANE('',#401);
#626=PLANE('',#405);
#627=PLANE('',#406);
#628=PLANE('',#410);
#629=PLANE('',#411);
#630=PLANE('',#417);
#631=CLOSED_SHELL('',(#344,#345,#346,#347,#348,#349,#350,#351,#352,#353,
#354,#355,#356,#357,#358,#359,#360,#361,#362,#363,#364,#365,#366,#367,#368,
#369,#370));
#632=MANIFOLD_SOLID_BREP('',#631);
#633=ADVANCED_BREP_SHAPE_REPRESENTATION('',(#632),#33);
ENDSEC;
END-ISO-10303-21;
