ISO-10303-21;
HEADER;
/* Generated by software containing ST-Developer
 * from STEP Tools, Inc. (www.steptools.com) 
 */

FILE_DESCRIPTION(
/* description */ ('Alibre Inc.'),
/* implementation_level */ '2;1');

FILE_NAME(
/* name */ 'export0',
/* time_stamp */ '2018-03-24T15:30:22-05:00',
/* author */ (''),
/* organization */ (''),
/* preprocessor_version */ 'ST-DEVELOPER v14',
/* originating_system */ 'Alibre',
/* authorisation */ '');

FILE_SCHEMA (('AUTOMOTIVE_DESIGN'));
ENDSEC;

DATA;
#10=STYLED_ITEM('NAME_0',(#18),#433);
#11=MECHANICAL_DESIGN_GEOMETRIC_PRESENTATION_REPRESENTATION('NAME_0',(#10),
#33);
#12=COLOUR_RGB('',0.882352941176471,0.882352941176471,0.882352941176471);
#13=FILL_AREA_STYLE_COLOUR('NAME_0',#12);
#14=FILL_AREA_STYLE('NAME_0',(#13));
#15=SURFACE_STYLE_FILL_AREA(#14);
#16=SURFACE_SIDE_STYLE('NAME_0',(#15));
#17=SURFACE_STYLE_USAGE(.POSITIVE.,#16);
#18=PRESENTATION_STYLE_ASSIGNMENT((#17));
#19=PRODUCT_DEFINITION_CONTEXT('part definition',#26,'design');
#20=SHAPE_DEFINITION_REPRESENTATION(#21,#434);
#21=PRODUCT_DEFINITION_SHAPE('PRODUCT_VERSION_ID',
'PRODUCT_VERSION_DESCR',#22);
#22=PRODUCT_DEFINITION('PRODUCT_VERSION_ID','PRODUCT_VERSION_DESCR',#23,
#19);
#23=PRODUCT_DEFINITION_FORMATION_WITH_SPECIFIED_SOURCE(
'PRODUCT_VERSION_ID','PRODUCT_VERSION_DESCR',#28,.MADE.);
#24=PRODUCT_RELATED_PRODUCT_CATEGORY('part','part',(#28));
#25=APPLICATION_PROTOCOL_DEFINITION('Draft International Standard',
'automotive_design',1994,#26);
#26=APPLICATION_CONTEXT('automotive_Design');
#27=PRODUCT_CONTEXT('3D Mechanical Parts',#26,'mechanical');
#28=PRODUCT('','SP-1606','',(#27));
#29=(
LENGTH_UNIT()
NAMED_UNIT(*)
SI_UNIT(.CENTI.,.METRE.)
);
#30=(
NAMED_UNIT(*)
PLANE_ANGLE_UNIT()
SI_UNIT($,.RADIAN.)
);
#31=(
NAMED_UNIT(*)
SI_UNIT($,.STERADIAN.)
SOLID_ANGLE_UNIT()
);
#32=UNCERTAINTY_MEASURE_WITH_UNIT(LENGTH_MEASURE(1.E-006),#29,
'DISTANCE_ACCURACY_VALUE',
'Maximum model space distance between geometric entities at asserted co
nnectivities');
#33=(
GEOMETRIC_REPRESENTATION_CONTEXT(3)
GLOBAL_UNCERTAINTY_ASSIGNED_CONTEXT((#32))
GLOBAL_UNIT_ASSIGNED_CONTEXT((#31,#30,#29))
REPRESENTATION_CONTEXT('ID1','3D')
);
#34=VECTOR('',#263,1.);
#35=VECTOR('',#264,1.);
#36=VECTOR('',#265,1.);
#37=VECTOR('',#266,1.);
#38=VECTOR('',#268,1.);
#39=VECTOR('',#269,1.);
#40=VECTOR('',#270,1.);
#41=VECTOR('',#271,1.);
#42=LINE('',#384,#34);
#43=LINE('',#387,#35);
#44=LINE('',#389,#36);
#45=LINE('',#391,#37);
#46=LINE('',#393,#38);
#47=LINE('',#396,#39);
#48=LINE('',#398,#40);
#49=LINE('',#400,#41);
#50=PLANE('',#227);
#51=PLANE('',#230);
#52=PLANE('',#231);
#53=PLANE('',#232);
#54=PLANE('',#233);
#55=PLANE('',#236);
#56=PLANE('',#243);
#57=PLANE('',#250);
#58=PLANE('',#251);
#59=B_SPLINE_CURVE_WITH_KNOTS('',3,(#308,#309,#310,#311,#312,#313,#314,#315,
#316,#317,#318,#319,#320,#321,#322,#323,#324,#325,#326,#327,#328,#329,#330,
#331,#332,#333,#334,#335,#336,#337,#338,#339,#340,#341),.UNSPECIFIED.,.T.,
 .U.,(4,2,2,2,2,2,2,2,2,2,2,2,2,2,2,2,4),(0.,0.00375559999451086,0.00751119998902172,
0.0115674268921877,0.0156236537953538,0.0196583792021469,0.02369310460894,
0.0274462325241229,0.0311993604393059,0.0350179330648413,0.0388365056903767,
0.0428059424413711,0.0467753791923655,0.0508316060955315,0.0548878329986976,
0.0586434329932084,0.0623990329877193),.UNSPECIFIED.);
#60=B_SPLINE_CURVE_WITH_KNOTS('',3,(#347,#348,#349,#350,#351,#352,#353,#354,
#355,#356,#357,#358,#359,#360,#361,#362,#363,#364,#365,#366,#367,#368,#369,
#370,#371,#372,#373,#374,#375,#376,#377,#378,#379,#380),.UNSPECIFIED.,.T.,
 .U.,(4,2,2,2,2,2,2,2,2,2,2,2,2,2,2,2,4),(0.,0.00375312791518292,0.00750625583036584,
0.011540981237159,0.0155757066439521,0.0196319335471181,0.0236881604502841,
0.027443760444795,0.0311993604393059,0.0349549604338167,0.0387105604283276,
0.0427667873314936,0.0468230142346596,0.0508577396414528,0.0548924650482459,
0.0586455929634288,0.0623987208786117),.UNSPECIFIED.);
#61=VERTEX_POINT('',#307);
#62=VERTEX_POINT('',#342);
#63=VERTEX_POINT('',#346);
#64=VERTEX_POINT('',#381);
#65=VERTEX_POINT('',#385);
#66=VERTEX_POINT('',#386);
#67=VERTEX_POINT('',#388);
#68=VERTEX_POINT('',#390);
#69=VERTEX_POINT('',#394);
#70=VERTEX_POINT('',#395);
#71=VERTEX_POINT('',#397);
#72=VERTEX_POINT('',#399);
#73=VERTEX_POINT('',#409);
#74=VERTEX_POINT('',#412);
#75=VERTEX_POINT('',#416);
#76=VERTEX_POINT('',#418);
#77=VERTEX_POINT('',#421);
#78=VERTEX_POINT('',#423);
#79=CIRCLE('',#226,0.01);
#80=CIRCLE('',#229,0.01);
#81=CIRCLE('',#234,0.6);
#82=CIRCLE('',#235,0.8);
#83=CIRCLE('',#237,0.8);
#84=CIRCLE('',#238,0.6);
#85=CIRCLE('',#240,0.8);
#86=CIRCLE('',#242,0.6);
#87=CIRCLE('',#245,0.7995);
#88=CIRCLE('',#246,0.7995);
#89=CIRCLE('',#248,0.6495);
#90=CIRCLE('',#249,0.6495);
#91=EDGE_CURVE('',#61,#61,#79,.T.);
#92=EDGE_CURVE('',#62,#62,#59,.T.);
#93=EDGE_CURVE('',#63,#63,#80,.T.);
#94=EDGE_CURVE('',#64,#64,#60,.T.);
#95=EDGE_CURVE('',#65,#66,#42,.T.);
#96=EDGE_CURVE('',#67,#65,#43,.T.);
#97=EDGE_CURVE('',#68,#67,#44,.T.);
#98=EDGE_CURVE('',#66,#68,#45,.T.);
#99=EDGE_CURVE('',#69,#70,#46,.T.);
#100=EDGE_CURVE('',#71,#69,#47,.T.);
#101=EDGE_CURVE('',#72,#71,#48,.T.);
#102=EDGE_CURVE('',#72,#70,#49,.T.);
#103=EDGE_CURVE('',#70,#65,#81,.T.);
#104=EDGE_CURVE('',#69,#66,#82,.T.);
#105=EDGE_CURVE('',#68,#71,#83,.T.);
#106=EDGE_CURVE('',#67,#72,#84,.T.);
#107=EDGE_CURVE('',#73,#73,#85,.T.);
#108=EDGE_CURVE('',#74,#74,#86,.T.);
#109=EDGE_CURVE('',#75,#75,#87,.T.);
#110=EDGE_CURVE('',#76,#76,#88,.T.);
#111=EDGE_CURVE('',#77,#77,#89,.T.);
#112=EDGE_CURVE('',#78,#78,#90,.T.);
#113=ORIENTED_EDGE('',*,*,#91,.T.);
#114=ORIENTED_EDGE('',*,*,#92,.F.);
#115=ORIENTED_EDGE('',*,*,#91,.F.);
#116=ORIENTED_EDGE('',*,*,#93,.T.);
#117=ORIENTED_EDGE('',*,*,#94,.F.);
#118=ORIENTED_EDGE('',*,*,#93,.F.);
#119=ORIENTED_EDGE('',*,*,#95,.F.);
#120=ORIENTED_EDGE('',*,*,#96,.F.);
#121=ORIENTED_EDGE('',*,*,#97,.F.);
#122=ORIENTED_EDGE('',*,*,#98,.F.);
#123=ORIENTED_EDGE('',*,*,#99,.F.);
#124=ORIENTED_EDGE('',*,*,#100,.F.);
#125=ORIENTED_EDGE('',*,*,#101,.F.);
#126=ORIENTED_EDGE('',*,*,#102,.T.);
#127=ORIENTED_EDGE('',*,*,#103,.T.);
#128=ORIENTED_EDGE('',*,*,#95,.T.);
#129=ORIENTED_EDGE('',*,*,#104,.F.);
#130=ORIENTED_EDGE('',*,*,#99,.T.);
#131=ORIENTED_EDGE('',*,*,#101,.T.);
#132=ORIENTED_EDGE('',*,*,#105,.F.);
#133=ORIENTED_EDGE('',*,*,#97,.T.);
#134=ORIENTED_EDGE('',*,*,#106,.T.);
#135=ORIENTED_EDGE('',*,*,#100,.T.);
#136=ORIENTED_EDGE('',*,*,#104,.T.);
#137=ORIENTED_EDGE('',*,*,#98,.T.);
#138=ORIENTED_EDGE('',*,*,#105,.T.);
#139=ORIENTED_EDGE('',*,*,#107,.T.);
#140=ORIENTED_EDGE('',*,*,#92,.T.);
#141=ORIENTED_EDGE('',*,*,#94,.T.);
#142=ORIENTED_EDGE('',*,*,#108,.T.);
#143=ORIENTED_EDGE('',*,*,#106,.F.);
#144=ORIENTED_EDGE('',*,*,#96,.T.);
#145=ORIENTED_EDGE('',*,*,#103,.F.);
#146=ORIENTED_EDGE('',*,*,#102,.F.);
#147=ORIENTED_EDGE('',*,*,#108,.F.);
#148=ORIENTED_EDGE('',*,*,#109,.T.);
#149=ORIENTED_EDGE('',*,*,#110,.F.);
#150=ORIENTED_EDGE('',*,*,#111,.T.);
#151=ORIENTED_EDGE('',*,*,#112,.F.);
#152=ORIENTED_EDGE('',*,*,#111,.F.);
#153=ORIENTED_EDGE('',*,*,#109,.F.);
#154=ORIENTED_EDGE('',*,*,#112,.T.);
#155=ORIENTED_EDGE('',*,*,#110,.T.);
#156=ORIENTED_EDGE('',*,*,#107,.F.);
#157=EDGE_LOOP('',(#113));
#158=EDGE_LOOP('',(#114));
#159=EDGE_LOOP('',(#115));
#160=EDGE_LOOP('',(#116));
#161=EDGE_LOOP('',(#117));
#162=EDGE_LOOP('',(#118));
#163=EDGE_LOOP('',(#119,#120,#121,#122));
#164=EDGE_LOOP('',(#123,#124,#125,#126));
#165=EDGE_LOOP('',(#127,#128,#129,#130));
#166=EDGE_LOOP('',(#131,#132,#133,#134));
#167=EDGE_LOOP('',(#135,#136,#137,#138));
#168=EDGE_LOOP('',(#139));
#169=EDGE_LOOP('',(#140));
#170=EDGE_LOOP('',(#141));
#171=EDGE_LOOP('',(#142));
#172=EDGE_LOOP('',(#143,#144,#145,#146));
#173=EDGE_LOOP('',(#147));
#174=EDGE_LOOP('',(#148));
#175=EDGE_LOOP('',(#149));
#176=EDGE_LOOP('',(#150));
#177=EDGE_LOOP('',(#151));
#178=EDGE_LOOP('',(#152));
#179=EDGE_LOOP('',(#153));
#180=EDGE_LOOP('',(#154));
#181=EDGE_LOOP('',(#155));
#182=EDGE_LOOP('',(#156));
#183=FACE_BOUND('',#157,.T.);
#184=FACE_BOUND('',#158,.T.);
#185=FACE_BOUND('',#159,.T.);
#186=FACE_BOUND('',#160,.T.);
#187=FACE_BOUND('',#161,.T.);
#188=FACE_BOUND('',#162,.T.);
#189=FACE_BOUND('',#163,.T.);
#190=FACE_BOUND('',#164,.T.);
#191=FACE_BOUND('',#165,.T.);
#192=FACE_BOUND('',#166,.T.);
#193=FACE_BOUND('',#167,.T.);
#194=FACE_BOUND('',#168,.T.);
#195=FACE_BOUND('',#169,.T.);
#196=FACE_BOUND('',#170,.T.);
#197=FACE_BOUND('',#171,.T.);
#198=FACE_BOUND('',#172,.T.);
#199=FACE_BOUND('',#173,.T.);
#200=FACE_BOUND('',#174,.T.);
#201=FACE_BOUND('',#175,.T.);
#202=FACE_BOUND('',#176,.T.);
#203=FACE_BOUND('',#177,.T.);
#204=FACE_BOUND('',#178,.T.);
#205=FACE_BOUND('',#179,.T.);
#206=FACE_BOUND('',#180,.T.);
#207=FACE_BOUND('',#181,.T.);
#208=FACE_BOUND('',#182,.T.);
#209=ADVANCED_FACE('',(#183,#184),#426,.T.);
#210=ADVANCED_FACE('',(#185),#50,.F.);
#211=ADVANCED_FACE('',(#186,#187),#427,.T.);
#212=ADVANCED_FACE('',(#188),#51,.T.);
#213=ADVANCED_FACE('',(#189),#52,.F.);
#214=ADVANCED_FACE('',(#190),#53,.F.);
#215=ADVANCED_FACE('',(#191),#54,.F.);
#216=ADVANCED_FACE('',(#192),#55,.F.);
#217=ADVANCED_FACE('',(#193,#194),#428,.T.);
#218=ADVANCED_FACE('',(#195,#196,#197,#198),#429,.T.);
#219=ADVANCED_FACE('',(#199),#56,.T.);
#220=ADVANCED_FACE('',(#200,#201),#430,.T.);
#221=ADVANCED_FACE('',(#202,#203),#431,.F.);
#222=ADVANCED_FACE('',(#204,#205),#57,.T.);
#223=ADVANCED_FACE('',(#206),#58,.T.);
#224=ADVANCED_FACE('',(#207,#208),#58,.T.);
#225=AXIS2_PLACEMENT_3D('',#305,#252,#253);
#226=AXIS2_PLACEMENT_3D('',#306,#254,#255);
#227=AXIS2_PLACEMENT_3D('',#343,#256,$);
#228=AXIS2_PLACEMENT_3D('',#344,#257,#258);
#229=AXIS2_PLACEMENT_3D('',#345,#259,#260);
#230=AXIS2_PLACEMENT_3D('',#382,#261,$);
#231=AXIS2_PLACEMENT_3D('',#383,#262,$);
#232=AXIS2_PLACEMENT_3D('',#392,#267,$);
#233=AXIS2_PLACEMENT_3D('',#401,#272,$);
#234=AXIS2_PLACEMENT_3D('',#402,#273,#274);
#235=AXIS2_PLACEMENT_3D('',#403,#275,#276);
#236=AXIS2_PLACEMENT_3D('',#404,#277,$);
#237=AXIS2_PLACEMENT_3D('',#405,#278,#279);
#238=AXIS2_PLACEMENT_3D('',#406,#280,#281);
#239=AXIS2_PLACEMENT_3D('',#407,#282,#283);
#240=AXIS2_PLACEMENT_3D('',#408,#284,#285);
#241=AXIS2_PLACEMENT_3D('',#410,#286,#287);
#242=AXIS2_PLACEMENT_3D('',#411,#288,#289);
#243=AXIS2_PLACEMENT_3D('',#413,#290,$);
#244=AXIS2_PLACEMENT_3D('',#414,#291,#292);
#245=AXIS2_PLACEMENT_3D('',#415,#293,#294);
#246=AXIS2_PLACEMENT_3D('',#417,#295,#296);
#247=AXIS2_PLACEMENT_3D('',#419,#297,#298);
#248=AXIS2_PLACEMENT_3D('',#420,#299,#300);
#249=AXIS2_PLACEMENT_3D('',#422,#301,#302);
#250=AXIS2_PLACEMENT_3D('',#424,#303,$);
#251=AXIS2_PLACEMENT_3D('',#425,#304,$);
#252=DIRECTION('',(0.,1.,0.));
#253=DIRECTION('',(-0.01,0.,0.));
#254=DIRECTION('',(0.,-1.,0.));
#255=DIRECTION('',(-0.01,0.,0.));
#256=DIRECTION('',(0.,-1.,0.));
#257=DIRECTION('',(0.,1.,0.));
#258=DIRECTION('',(0.01,0.,0.));
#259=DIRECTION('',(0.,-1.,0.));
#260=DIRECTION('',(0.01,0.,0.));
#261=DIRECTION('',(0.,1.,0.));
#262=DIRECTION('',(-0.866025403784439,-0.5,0.));
#263=DIRECTION('',(-0.5,0.866025403784439,0.));
#264=DIRECTION('',(0.,0.,1.));
#265=DIRECTION('',(0.5,-0.866025403784439,0.));
#266=DIRECTION('',(0.,0.,-1.));
#267=DIRECTION('',(0.866025403784439,-0.5,0.));
#268=DIRECTION('',(-0.5,-0.866025403784439,0.));
#269=DIRECTION('',(0.,0.,1.));
#270=DIRECTION('',(0.5,0.866025403784439,0.));
#271=DIRECTION('',(0.,0.,1.));
#272=DIRECTION('',(0.,0.,1.));
#273=DIRECTION('',(0.,0.,1.));
#274=DIRECTION('',(-0.6,0.,0.));
#275=DIRECTION('',(0.,0.,1.));
#276=DIRECTION('',(0.8,0.,0.));
#277=DIRECTION('',(0.,0.,1.));
#278=DIRECTION('',(0.,0.,1.));
#279=DIRECTION('',(0.8,0.,0.));
#280=DIRECTION('',(0.,0.,1.));
#281=DIRECTION('',(-0.6,0.,0.));
#282=DIRECTION('',(0.,0.,1.));
#283=DIRECTION('',(0.8,0.,0.));
#284=DIRECTION('',(0.,0.,-1.));
#285=DIRECTION('',(0.8,0.,0.));
#286=DIRECTION('',(0.,0.,-1.));
#287=DIRECTION('',(-0.6,0.,0.));
#288=DIRECTION('',(0.,0.,1.));
#289=DIRECTION('',(-0.6,0.,0.));
#290=DIRECTION('',(0.,0.,-1.));
#291=DIRECTION('',(0.,0.,1.));
#292=DIRECTION('',(0.7995,0.,0.));
#293=DIRECTION('',(0.,0.,-1.));
#294=DIRECTION('',(0.7995,0.,0.));
#295=DIRECTION('',(0.,0.,-1.));
#296=DIRECTION('',(0.7995,0.,0.));
#297=DIRECTION('',(0.,0.,1.));
#298=DIRECTION('',(0.6495,0.,0.));
#299=DIRECTION('',(0.,0.,1.));
#300=DIRECTION('',(0.6495,0.,0.));
#301=DIRECTION('',(0.,0.,1.));
#302=DIRECTION('',(0.6495,0.,0.));
#303=DIRECTION('',(0.,0.,1.));
#304=DIRECTION('',(0.,0.,1.));
#305=CARTESIAN_POINT('',(0.213376106264004,0.49,0.0139812436414747));
#306=CARTESIAN_POINT('',(0.213376106264004,1.49,0.0139812436414747));
#307=CARTESIAN_POINT('',(0.203376106264004,1.49,0.0139812436414747));
#308=CARTESIAN_POINT('',(0.223376106264004,0.556869028722493,0.0139812436414747));
#309=CARTESIAN_POINT('',(0.223376106264004,0.556869028722493,0.0152331103063117));
#310=CARTESIAN_POINT('',(0.223125939072105,0.556969609971289,0.0165610266514331));
#311=CARTESIAN_POINT('',(0.222131326022322,0.557366952405984,0.0189884923346822));
#312=CARTESIAN_POINT('',(0.221386459488341,0.557663746482988,0.0200878639024787));
#313=CARTESIAN_POINT('',(0.219636267963461,0.55835550026689,0.0218875366022743));
#314=CARTESIAN_POINT('',(0.218489473068722,0.558806034336817,0.0226808818145285));
#315=CARTESIAN_POINT('',(0.215991344451174,0.559776291653259,0.0237279783852706));
#316=CARTESIAN_POINT('',(0.214639794045901,0.560295981531596,0.0239812436414748));
#317=CARTESIAN_POINT('',(0.212119117115814,0.561255101475966,0.0239812436414748));
#318=CARTESIAN_POINT('',(0.210770701585775,0.561762803213176,0.0237304773155131));
#319=CARTESIAN_POINT('',(0.208274310362214,0.56269318917329,0.0226873364808047));
#320=CARTESIAN_POINT('',(0.207126160538288,0.563116055561861,0.0218955412627364));
#321=CARTESIAN_POINT('',(0.205370244854126,0.563758702390174,0.0200947838343761));
#322=CARTESIAN_POINT('',(0.204622781376847,0.56402992644063,0.0189922722304078));
#323=CARTESIAN_POINT('',(0.203625889956022,0.564390663864129,0.0165609315257376));
#324=CARTESIAN_POINT('',(0.203376106264004,0.564480433142631,0.015232286279869));
#325=CARTESIAN_POINT('',(0.203376106264004,0.564480433142631,0.0127083860996296));
#326=CARTESIAN_POINT('',(0.203634596099673,0.564387540985165,0.0113583262764376));
#327=CARTESIAN_POINT('',(0.20466320384657,0.564015274118568,0.00889477252935608));
#328=CARTESIAN_POINT('',(0.205433724708938,0.563735616872746,0.00778148957280974));
#329=CARTESIAN_POINT('',(0.20721077604916,0.563084917790155,0.00600443823258725));
#330=CARTESIAN_POINT('',(0.208347466369797,0.56266606393112,0.00523587219151935));
#331=CARTESIAN_POINT('',(0.210811731783479,0.561747368659716,0.0042240166522425));
#332=CARTESIAN_POINT('',(0.212139457318322,0.561247362009768,0.00398124364147473));
#333=CARTESIAN_POINT('',(0.214639794045901,0.560295981531596,0.00398124364147473));
#334=CARTESIAN_POINT('',(0.215991344451174,0.559776291653259,0.00423450889767892));
#335=CARTESIAN_POINT('',(0.218489473068722,0.558806034336817,0.00528160546842097));
#336=CARTESIAN_POINT('',(0.219636267963461,0.55835550026689,0.00607495068067521));
#337=CARTESIAN_POINT('',(0.221386459488341,0.557663746482988,0.00787462338047077));
#338=CARTESIAN_POINT('',(0.222131326022322,0.557366952405984,0.0089739949482673));
#339=CARTESIAN_POINT('',(0.223125939072105,0.556969609971289,0.0114014606315164));
#340=CARTESIAN_POINT('',(0.223376106264004,0.556869028722493,0.0127293769766378));
#341=CARTESIAN_POINT('',(0.223376106264004,0.556869028722493,0.0139812436414747));
#342=CARTESIAN_POINT('',(0.223376106264004,0.556869028722493,0.0139812436414747));
#343=CARTESIAN_POINT('',(0.213376106264004,1.49,0.0139812436414747));
#344=CARTESIAN_POINT('',(-0.213376106264004,0.49,0.0139812436414747));
#345=CARTESIAN_POINT('',(-0.213376106264004,1.49,0.0139812436414747));
#346=CARTESIAN_POINT('',(-0.203376106264004,1.49,0.0139812436414747));
#347=CARTESIAN_POINT('',(-0.203376106264004,0.564480433142631,0.0139812436414747));
#348=CARTESIAN_POINT('',(-0.203376106264004,0.564480433142631,0.015232286279869));
#349=CARTESIAN_POINT('',(-0.203625889956022,0.564390663864129,0.0165609315257376));
#350=CARTESIAN_POINT('',(-0.204622781376847,0.56402992644063,0.0189922722304078));
#351=CARTESIAN_POINT('',(-0.205370244854126,0.563758702390174,0.0200947838343761));
#352=CARTESIAN_POINT('',(-0.207126160538288,0.563116055561861,0.0218955412627364));
#353=CARTESIAN_POINT('',(-0.208274310362214,0.56269318917329,0.0226873364808047));
#354=CARTESIAN_POINT('',(-0.210770701585775,0.561762803213176,0.0237304773155131));
#355=CARTESIAN_POINT('',(-0.212119117115814,0.561255101475966,0.0239812436414748));
#356=CARTESIAN_POINT('',(-0.214639794045901,0.560295981531596,0.0239812436414748));
#357=CARTESIAN_POINT('',(-0.215991344451174,0.559776291653259,0.0237279783852706));
#358=CARTESIAN_POINT('',(-0.218489473068722,0.558806034336817,0.0226808818145285));
#359=CARTESIAN_POINT('',(-0.219636267963461,0.55835550026689,0.0218875366022743));
#360=CARTESIAN_POINT('',(-0.221386459488341,0.557663746482988,0.0200878639024787));
#361=CARTESIAN_POINT('',(-0.222131326022322,0.557366952405984,0.0189884923346822));
#362=CARTESIAN_POINT('',(-0.223125939072105,0.556969609971289,0.0165610266514331));
#363=CARTESIAN_POINT('',(-0.223376106264004,0.556869028722493,0.0152331103063117));
#364=CARTESIAN_POINT('',(-0.223376106264004,0.556869028722493,0.0127293769766378));
#365=CARTESIAN_POINT('',(-0.223125939072105,0.556969609971289,0.0114014606315164));
#366=CARTESIAN_POINT('',(-0.222131326022322,0.557366952405984,0.0089739949482673));
#367=CARTESIAN_POINT('',(-0.221386459488341,0.557663746482988,0.00787462338047077));
#368=CARTESIAN_POINT('',(-0.219636267963461,0.55835550026689,0.00607495068067521));
#369=CARTESIAN_POINT('',(-0.218489473068722,0.558806034336817,0.00528160546842097));
#370=CARTESIAN_POINT('',(-0.215991344451174,0.559776291653259,0.00423450889767892));
#371=CARTESIAN_POINT('',(-0.214639794045901,0.560295981531596,0.00398124364147473));
#372=CARTESIAN_POINT('',(-0.212119117115814,0.561255101475966,0.00398124364147473));
#373=CARTESIAN_POINT('',(-0.210770701585775,0.561762803213176,0.00423200996743636));
#374=CARTESIAN_POINT('',(-0.208274310362214,0.56269318917329,0.00527515080214474));
#375=CARTESIAN_POINT('',(-0.207126160538288,0.563116055561861,0.00606694602021307));
#376=CARTESIAN_POINT('',(-0.205370244854126,0.563758702390174,0.00786770344857339));
#377=CARTESIAN_POINT('',(-0.204622781376847,0.56402992644063,0.0089702150525417));
#378=CARTESIAN_POINT('',(-0.203625889956022,0.564390663864129,0.0114015557572119));
#379=CARTESIAN_POINT('',(-0.203376106264004,0.564480433142631,0.0127302010030804));
#380=CARTESIAN_POINT('',(-0.203376106264004,0.564480433142631,0.0139812436414747));
#381=CARTESIAN_POINT('',(-0.203376106264004,0.564480433142631,0.0139812436414747));
#382=CARTESIAN_POINT('',(-0.213376106264004,1.49,0.0139812436414747));
#383=CARTESIAN_POINT('',(-0.35,0.606217782649107,0.));
#384=CARTESIAN_POINT('',(-0.3,0.519615242270663,0.025));
#385=CARTESIAN_POINT('',(-0.3,0.519615242270663,0.025));
#386=CARTESIAN_POINT('',(-0.4,0.692820323027551,0.025));
#387=CARTESIAN_POINT('',(-0.3,0.519615242270663,0.));
#388=CARTESIAN_POINT('',(-0.3,0.519615242270663,0.));
#389=CARTESIAN_POINT('',(-0.175,0.303108891324554,0.));
#390=CARTESIAN_POINT('',(-0.4,0.692820323027551,0.));
#391=CARTESIAN_POINT('',(-0.4,0.692820323027551,0.0125));
#392=CARTESIAN_POINT('',(0.35,0.606217782649107,0.));
#393=CARTESIAN_POINT('',(0.4,0.692820323027551,0.025));
#394=CARTESIAN_POINT('',(0.4,0.692820323027551,0.025));
#395=CARTESIAN_POINT('',(0.3,0.519615242270663,0.025));
#396=CARTESIAN_POINT('',(0.4,0.692820323027551,0.0125));
#397=CARTESIAN_POINT('',(0.4,0.692820323027551,0.));
#398=CARTESIAN_POINT('',(0.175,0.303108891324553,0.));
#399=CARTESIAN_POINT('',(0.3,0.519615242270663,0.));
#400=CARTESIAN_POINT('',(0.3,0.519615242270663,0.));
#401=CARTESIAN_POINT('',(1.21496954048229E-016,0.660847759333107,0.025));
#402=CARTESIAN_POINT('',(0.,0.,0.025));
#403=CARTESIAN_POINT('',(0.,0.,0.025));
#404=CARTESIAN_POINT('',(0.,0.,0.));
#405=CARTESIAN_POINT('',(0.,0.,0.));
#406=CARTESIAN_POINT('',(0.,0.,0.));
#407=CARTESIAN_POINT('',(0.,0.,0.));
#408=CARTESIAN_POINT('',(0.,0.,0.325));
#409=CARTESIAN_POINT('',(0.8,0.,0.325));
#410=CARTESIAN_POINT('',(0.,0.,0.));
#411=CARTESIAN_POINT('',(0.,0.,-0.025));
#412=CARTESIAN_POINT('',(-0.6,0.,-0.025));
#413=CARTESIAN_POINT('',(0.,0.,-0.025));
#414=CARTESIAN_POINT('',(0.,0.,0.325));
#415=CARTESIAN_POINT('',(0.,0.,0.55));
#416=CARTESIAN_POINT('',(0.7995,0.,0.55));
#417=CARTESIAN_POINT('',(0.,0.,0.325));
#418=CARTESIAN_POINT('',(0.7995,0.,0.325));
#419=CARTESIAN_POINT('',(0.,0.,0.325));
#420=CARTESIAN_POINT('',(0.,0.,0.55));
#421=CARTESIAN_POINT('',(0.6495,0.,0.55));
#422=CARTESIAN_POINT('',(0.,0.,0.325));
#423=CARTESIAN_POINT('',(0.6495,0.,0.325));
#424=CARTESIAN_POINT('',(0.,0.,0.55));
#425=CARTESIAN_POINT('',(0.,0.,0.325));
#426=CYLINDRICAL_SURFACE('',#225,0.01);
#427=CYLINDRICAL_SURFACE('',#228,0.01);
#428=CYLINDRICAL_SURFACE('',#239,0.8);
#429=CYLINDRICAL_SURFACE('',#241,0.6);
#430=CYLINDRICAL_SURFACE('',#244,0.7995);
#431=CYLINDRICAL_SURFACE('',#247,0.6495);
#432=CLOSED_SHELL('',(#209,#210,#211,#212,#213,#214,#215,#216,#217,#218,
#219,#220,#221,#222,#223,#224));
#433=MANIFOLD_SOLID_BREP('',#432);
#434=ADVANCED_BREP_SHAPE_REPRESENTATION('',(#433),#33);
ENDSEC;
END-ISO-10303-21;
