ISO-10303-21;
HEADER;
/* Generated by software containing ST-Developer
 * from STEP Tools, Inc. (www.steptools.com) 
 */

FILE_DESCRIPTION(
/* description */ ('Alibre Inc.'),
/* implementation_level */ '2;1');

FILE_NAME(
/* name */ 'export0',
/* time_stamp */ '2018-03-24T15:15:24-05:00',
/* author */ (''),
/* organization */ (''),
/* preprocessor_version */ 'ST-DEVELOPER v14',
/* originating_system */ 'Alibre',
/* authorisation */ '');

FILE_SCHEMA (('AUTOMOTIVE_DESIGN'));
ENDSEC;

DATA;
#10=STYLED_ITEM('NAME_0',(#18),#382);
#11=MECHANICAL_DESIGN_GEOMETRIC_PRESENTATION_REPRESENTATION('NAME_0',(#10),
#33);
#12=COLOUR_RGB('',0.882352941176471,0.882352941176471,0.882352941176471);
#13=FILL_AREA_STYLE_COLOUR('NAME_0',#12);
#14=FILL_AREA_STYLE('NAME_0',(#13));
#15=SURFACE_STYLE_FILL_AREA(#14);
#16=SURFACE_SIDE_STYLE('NAME_0',(#15));
#17=SURFACE_STYLE_USAGE(.POSITIVE.,#16);
#18=PRESENTATION_STYLE_ASSIGNMENT((#17));
#19=PRODUCT_DEFINITION_CONTEXT('part definition',#26,'design');
#20=SHAPE_DEFINITION_REPRESENTATION(#21,#383);
#21=PRODUCT_DEFINITION_SHAPE('PRODUCT_VERSION_ID',
'PRODUCT_VERSION_DESCR',#22);
#22=PRODUCT_DEFINITION('PRODUCT_VERSION_ID','PRODUCT_VERSION_DESCR',#23,
#19);
#23=PRODUCT_DEFINITION_FORMATION_WITH_SPECIFIED_SOURCE(
'PRODUCT_VERSION_ID','PRODUCT_VERSION_DESCR',#28,.MADE.);
#24=PRODUCT_RELATED_PRODUCT_CATEGORY('part','part',(#28));
#25=APPLICATION_PROTOCOL_DEFINITION('Draft International Standard',
'automotive_design',1994,#26);
#26=APPLICATION_CONTEXT('automotive_Design');
#27=PRODUCT_CONTEXT('3D Mechanical Parts',#26,'mechanical');
#28=PRODUCT('','PB-2401-1','',(#27));
#29=(
LENGTH_UNIT()
NAMED_UNIT(*)
SI_UNIT(.CENTI.,.METRE.)
);
#30=(
NAMED_UNIT(*)
PLANE_ANGLE_UNIT()
SI_UNIT($,.RADIAN.)
);
#31=(
NAMED_UNIT(*)
SI_UNIT($,.STERADIAN.)
SOLID_ANGLE_UNIT()
);
#32=UNCERTAINTY_MEASURE_WITH_UNIT(LENGTH_MEASURE(1.E-006),#29,
'DISTANCE_ACCURACY_VALUE',
'Maximum model space distance between geometric entities at asserted co
nnectivities');
#33=(
GEOMETRIC_REPRESENTATION_CONTEXT(3)
GLOBAL_UNCERTAINTY_ASSIGNED_CONTEXT((#32))
GLOBAL_UNIT_ASSIGNED_CONTEXT((#31,#30,#29))
REPRESENTATION_CONTEXT('ID1','3D')
);
#34=PLANE('',#242);
#35=PLANE('',#247);
#36=PLANE('',#251);
#37=PLANE('',#254);
#38=PLANE('',#258);
#39=PLANE('',#259);
#40=PLANE('',#260);
#41=PLANE('',#263);
#42=PLANE('',#264);
#43=VECTOR('',#272,1.);
#44=VECTOR('',#275,1.);
#45=VECTOR('',#304,1.);
#46=VECTOR('',#307,1.);
#47=VECTOR('',#309,1.);
#48=VECTOR('',#310,1.);
#49=VECTOR('',#311,1.);
#50=VECTOR('',#313,1.);
#51=VECTOR('',#314,1.);
#52=VECTOR('',#315,1.);
#53=LINE('',#329,#43);
#54=LINE('',#334,#44);
#55=LINE('',#360,#45);
#56=LINE('',#364,#46);
#57=LINE('',#366,#47);
#58=LINE('',#367,#48);
#59=LINE('',#369,#49);
#60=LINE('',#371,#50);
#61=LINE('',#373,#51);
#62=LINE('',#374,#52);
#63=CYLINDRICAL_SURFACE('',#239,1.15);
#64=CYLINDRICAL_SURFACE('',#244,0.04);
#65=CYLINDRICAL_SURFACE('',#248,0.04);
#66=CYLINDRICAL_SURFACE('',#252,0.2);
#67=CYLINDRICAL_SURFACE('',#255,1.05);
#68=CYLINDRICAL_SURFACE('',#261,1.05);
#69=VERTEX_POINT('',#325);
#70=VERTEX_POINT('',#327);
#71=VERTEX_POINT('',#330);
#72=VERTEX_POINT('',#331);
#73=VERTEX_POINT('',#333);
#74=VERTEX_POINT('',#335);
#75=VERTEX_POINT('',#339);
#76=VERTEX_POINT('',#342);
#77=VERTEX_POINT('',#344);
#78=VERTEX_POINT('',#348);
#79=VERTEX_POINT('',#350);
#80=VERTEX_POINT('',#354);
#81=VERTEX_POINT('',#358);
#82=VERTEX_POINT('',#359);
#83=VERTEX_POINT('',#361);
#84=VERTEX_POINT('',#363);
#85=VERTEX_POINT('',#368);
#86=VERTEX_POINT('',#372);
#87=CIRCLE('',#237,1.1);
#88=CIRCLE('',#238,1.15);
#89=CIRCLE('',#240,1.15);
#90=CIRCLE('',#241,1.15);
#91=CIRCLE('',#243,0.2);
#92=CIRCLE('',#245,0.04);
#93=CIRCLE('',#246,0.04);
#94=CIRCLE('',#249,0.04);
#95=CIRCLE('',#250,0.04);
#96=CIRCLE('',#253,0.2);
#97=CIRCLE('',#256,1.05);
#98=CIRCLE('',#257,1.05);
#99=CIRCLE('',#262,1.05);
#100=EDGE_CURVE('',#69,#69,#87,.T.);
#101=EDGE_CURVE('',#70,#70,#88,.T.);
#102=EDGE_CURVE('',#71,#72,#53,.T.);
#103=EDGE_CURVE('',#72,#73,#89,.T.);
#104=EDGE_CURVE('',#73,#74,#54,.T.);
#105=EDGE_CURVE('',#74,#71,#90,.T.);
#106=EDGE_CURVE('',#75,#75,#91,.T.);
#107=EDGE_CURVE('',#76,#76,#92,.T.);
#108=EDGE_CURVE('',#77,#77,#93,.T.);
#109=EDGE_CURVE('',#78,#78,#94,.T.);
#110=EDGE_CURVE('',#79,#79,#95,.T.);
#111=EDGE_CURVE('',#80,#80,#96,.T.);
#112=EDGE_CURVE('',#81,#82,#97,.T.);
#113=EDGE_CURVE('',#81,#83,#55,.T.);
#114=EDGE_CURVE('',#84,#83,#98,.T.);
#115=EDGE_CURVE('',#82,#84,#56,.T.);
#116=EDGE_CURVE('',#83,#71,#57,.T.);
#117=EDGE_CURVE('',#85,#81,#58,.T.);
#118=EDGE_CURVE('',#72,#85,#59,.T.);
#119=EDGE_CURVE('',#86,#73,#60,.T.);
#120=EDGE_CURVE('',#82,#86,#61,.T.);
#121=EDGE_CURVE('',#74,#84,#62,.T.);
#122=EDGE_CURVE('',#82,#81,#97,.T.);
#123=EDGE_CURVE('',#85,#86,#99,.T.);
#124=ORIENTED_EDGE('',*,*,#100,.T.);
#125=ORIENTED_EDGE('',*,*,#101,.T.);
#126=ORIENTED_EDGE('',*,*,#102,.T.);
#127=ORIENTED_EDGE('',*,*,#103,.T.);
#128=ORIENTED_EDGE('',*,*,#104,.T.);
#129=ORIENTED_EDGE('',*,*,#105,.T.);
#130=ORIENTED_EDGE('',*,*,#101,.F.);
#131=ORIENTED_EDGE('',*,*,#106,.T.);
#132=ORIENTED_EDGE('',*,*,#100,.F.);
#133=ORIENTED_EDGE('',*,*,#107,.T.);
#134=ORIENTED_EDGE('',*,*,#108,.F.);
#135=ORIENTED_EDGE('',*,*,#107,.F.);
#136=ORIENTED_EDGE('',*,*,#109,.T.);
#137=ORIENTED_EDGE('',*,*,#110,.F.);
#138=ORIENTED_EDGE('',*,*,#109,.F.);
#139=ORIENTED_EDGE('',*,*,#111,.F.);
#140=ORIENTED_EDGE('',*,*,#106,.F.);
#141=ORIENTED_EDGE('',*,*,#111,.T.);
#142=ORIENTED_EDGE('',*,*,#112,.F.);
#143=ORIENTED_EDGE('',*,*,#113,.T.);
#144=ORIENTED_EDGE('',*,*,#114,.F.);
#145=ORIENTED_EDGE('',*,*,#115,.F.);
#146=ORIENTED_EDGE('',*,*,#102,.F.);
#147=ORIENTED_EDGE('',*,*,#116,.F.);
#148=ORIENTED_EDGE('',*,*,#113,.F.);
#149=ORIENTED_EDGE('',*,*,#117,.F.);
#150=ORIENTED_EDGE('',*,*,#118,.F.);
#151=ORIENTED_EDGE('',*,*,#104,.F.);
#152=ORIENTED_EDGE('',*,*,#119,.F.);
#153=ORIENTED_EDGE('',*,*,#120,.F.);
#154=ORIENTED_EDGE('',*,*,#115,.T.);
#155=ORIENTED_EDGE('',*,*,#121,.F.);
#156=ORIENTED_EDGE('',*,*,#105,.F.);
#157=ORIENTED_EDGE('',*,*,#121,.T.);
#158=ORIENTED_EDGE('',*,*,#114,.T.);
#159=ORIENTED_EDGE('',*,*,#116,.T.);
#160=ORIENTED_EDGE('',*,*,#117,.T.);
#161=ORIENTED_EDGE('',*,*,#122,.F.);
#162=ORIENTED_EDGE('',*,*,#120,.T.);
#163=ORIENTED_EDGE('',*,*,#123,.F.);
#164=ORIENTED_EDGE('',*,*,#108,.T.);
#165=ORIENTED_EDGE('',*,*,#110,.T.);
#166=ORIENTED_EDGE('',*,*,#122,.T.);
#167=ORIENTED_EDGE('',*,*,#112,.T.);
#168=ORIENTED_EDGE('',*,*,#118,.T.);
#169=ORIENTED_EDGE('',*,*,#123,.T.);
#170=ORIENTED_EDGE('',*,*,#119,.T.);
#171=ORIENTED_EDGE('',*,*,#103,.F.);
#172=EDGE_LOOP('',(#124));
#173=EDGE_LOOP('',(#125));
#174=EDGE_LOOP('',(#126,#127,#128,#129));
#175=EDGE_LOOP('',(#130));
#176=EDGE_LOOP('',(#131));
#177=EDGE_LOOP('',(#132));
#178=EDGE_LOOP('',(#133));
#179=EDGE_LOOP('',(#134));
#180=EDGE_LOOP('',(#135));
#181=EDGE_LOOP('',(#136));
#182=EDGE_LOOP('',(#137));
#183=EDGE_LOOP('',(#138));
#184=EDGE_LOOP('',(#139));
#185=EDGE_LOOP('',(#140));
#186=EDGE_LOOP('',(#141));
#187=EDGE_LOOP('',(#142,#143,#144,#145));
#188=EDGE_LOOP('',(#146,#147,#148,#149,#150));
#189=EDGE_LOOP('',(#151,#152,#153,#154,#155));
#190=EDGE_LOOP('',(#156,#157,#158,#159));
#191=EDGE_LOOP('',(#160,#161,#162,#163));
#192=EDGE_LOOP('',(#164));
#193=EDGE_LOOP('',(#165));
#194=EDGE_LOOP('',(#166,#167));
#195=EDGE_LOOP('',(#168,#169,#170,#171));
#196=FACE_BOUND('',#172,.T.);
#197=FACE_BOUND('',#173,.T.);
#198=FACE_BOUND('',#174,.T.);
#199=FACE_BOUND('',#175,.T.);
#200=FACE_BOUND('',#176,.T.);
#201=FACE_BOUND('',#177,.T.);
#202=FACE_BOUND('',#178,.T.);
#203=FACE_BOUND('',#179,.T.);
#204=FACE_BOUND('',#180,.T.);
#205=FACE_BOUND('',#181,.T.);
#206=FACE_BOUND('',#182,.T.);
#207=FACE_BOUND('',#183,.T.);
#208=FACE_BOUND('',#184,.T.);
#209=FACE_BOUND('',#185,.T.);
#210=FACE_BOUND('',#186,.T.);
#211=FACE_BOUND('',#187,.T.);
#212=FACE_BOUND('',#188,.T.);
#213=FACE_BOUND('',#189,.T.);
#214=FACE_BOUND('',#190,.T.);
#215=FACE_BOUND('',#191,.T.);
#216=FACE_BOUND('',#192,.T.);
#217=FACE_BOUND('',#193,.T.);
#218=FACE_BOUND('',#194,.T.);
#219=FACE_BOUND('',#195,.T.);
#220=ADVANCED_FACE('',(#196,#197),#380,.T.);
#221=ADVANCED_FACE('',(#198,#199),#63,.T.);
#222=ADVANCED_FACE('',(#200,#201),#34,.F.);
#223=ADVANCED_FACE('',(#202,#203),#64,.T.);
#224=ADVANCED_FACE('',(#204),#35,.F.);
#225=ADVANCED_FACE('',(#205,#206),#65,.T.);
#226=ADVANCED_FACE('',(#207),#36,.T.);
#227=ADVANCED_FACE('',(#208,#209),#66,.F.);
#228=ADVANCED_FACE('',(#210),#37,.T.);
#229=ADVANCED_FACE('',(#211),#67,.T.);
#230=ADVANCED_FACE('',(#212),#38,.F.);
#231=ADVANCED_FACE('',(#213),#39,.F.);
#232=ADVANCED_FACE('',(#214),#40,.T.);
#233=ADVANCED_FACE('',(#215),#68,.F.);
#234=ADVANCED_FACE('',(#216,#217,#218),#41,.T.);
#235=ADVANCED_FACE('',(#219),#42,.T.);
#236=AXIS2_PLACEMENT_3D('',#323,#265,$);
#237=AXIS2_PLACEMENT_3D('',#324,#266,#267);
#238=AXIS2_PLACEMENT_3D('',#326,#268,#269);
#239=AXIS2_PLACEMENT_3D('',#328,#270,#271);
#240=AXIS2_PLACEMENT_3D('',#332,#273,#274);
#241=AXIS2_PLACEMENT_3D('',#336,#276,#277);
#242=AXIS2_PLACEMENT_3D('',#337,#278,$);
#243=AXIS2_PLACEMENT_3D('',#338,#279,#280);
#244=AXIS2_PLACEMENT_3D('',#340,#281,#282);
#245=AXIS2_PLACEMENT_3D('',#341,#283,#284);
#246=AXIS2_PLACEMENT_3D('',#343,#285,#286);
#247=AXIS2_PLACEMENT_3D('',#345,#287,$);
#248=AXIS2_PLACEMENT_3D('',#346,#288,#289);
#249=AXIS2_PLACEMENT_3D('',#347,#290,#291);
#250=AXIS2_PLACEMENT_3D('',#349,#292,#293);
#251=AXIS2_PLACEMENT_3D('',#351,#294,$);
#252=AXIS2_PLACEMENT_3D('',#352,#295,#296);
#253=AXIS2_PLACEMENT_3D('',#353,#297,#298);
#254=AXIS2_PLACEMENT_3D('',#355,#299,$);
#255=AXIS2_PLACEMENT_3D('',#356,#300,#301);
#256=AXIS2_PLACEMENT_3D('',#357,#302,#303);
#257=AXIS2_PLACEMENT_3D('',#362,#305,#306);
#258=AXIS2_PLACEMENT_3D('',#365,#308,$);
#259=AXIS2_PLACEMENT_3D('',#370,#312,$);
#260=AXIS2_PLACEMENT_3D('',#375,#316,$);
#261=AXIS2_PLACEMENT_3D('',#376,#317,#318);
#262=AXIS2_PLACEMENT_3D('',#377,#319,#320);
#263=AXIS2_PLACEMENT_3D('',#378,#321,$);
#264=AXIS2_PLACEMENT_3D('',#379,#322,$);
#265=DIRECTION('',(0.,0.,1.));
#266=DIRECTION('',(0.,0.,1.));
#267=DIRECTION('',(-1.1,1.34711147906209E-016,0.));
#268=DIRECTION('',(0.,0.,-1.));
#269=DIRECTION('',(-1.15,1.40834381901946E-016,0.));
#270=DIRECTION('',(0.,0.,1.));
#271=DIRECTION('',(1.15,0.,0.));
#272=DIRECTION('',(0.,0.,1.));
#273=DIRECTION('',(0.,0.,-1.));
#274=DIRECTION('',(1.15,0.,0.));
#275=DIRECTION('',(0.,0.,-1.));
#276=DIRECTION('',(0.,0.,-1.));
#277=DIRECTION('',(1.15,0.,0.));
#278=DIRECTION('',(0.,0.,1.));
#279=DIRECTION('',(0.,0.,1.));
#280=DIRECTION('',(-0.2,0.,0.));
#281=DIRECTION('',(0.,0.,1.));
#282=DIRECTION('',(-0.04,0.,0.));
#283=DIRECTION('',(0.,0.,-1.));
#284=DIRECTION('',(-0.04,0.,0.));
#285=DIRECTION('',(0.,0.,-1.));
#286=DIRECTION('',(-0.04,0.,0.));
#287=DIRECTION('',(0.,0.,-1.));
#288=DIRECTION('',(0.,0.,1.));
#289=DIRECTION('',(0.04,0.,0.));
#290=DIRECTION('',(0.,0.,-1.));
#291=DIRECTION('',(0.04,0.,0.));
#292=DIRECTION('',(0.,0.,-1.));
#293=DIRECTION('',(0.04,0.,0.));
#294=DIRECTION('',(0.,0.,1.));
#295=DIRECTION('',(0.,0.,1.));
#296=DIRECTION('',(-0.2,0.,0.));
#297=DIRECTION('',(0.,0.,-1.));
#298=DIRECTION('',(-0.2,0.,0.));
#299=DIRECTION('',(0.,0.,-1.));
#300=DIRECTION('',(0.,0.,-1.));
#301=DIRECTION('',(1.05,0.,0.));
#302=DIRECTION('',(0.,0.,1.));
#303=DIRECTION('',(1.05,0.,0.));
#304=DIRECTION('',(0.,0.,-1.));
#305=DIRECTION('',(0.,0.,-1.));
#306=DIRECTION('',(1.05,0.,0.));
#307=DIRECTION('',(0.,0.,-1.));
#308=DIRECTION('',(1.,1.29157853608247E-016,0.));
#309=DIRECTION('',(-1.29157853608247E-016,1.,0.));
#310=DIRECTION('',(0.,0.,-1.));
#311=DIRECTION('',(1.29157853608247E-016,-1.,0.));
#312=DIRECTION('',(-1.,0.,0.));
#313=DIRECTION('',(0.,1.,0.));
#314=DIRECTION('',(0.,0.,1.));
#315=DIRECTION('',(0.,-1.,0.));
#316=DIRECTION('',(0.,0.,1.));
#317=DIRECTION('',(0.,0.,-1.));
#318=DIRECTION('',(1.05,0.,0.));
#319=DIRECTION('',(0.,0.,-1.));
#320=DIRECTION('',(1.05,0.,0.));
#321=DIRECTION('',(0.,0.,1.));
#322=DIRECTION('',(0.,0.,1.));
#323=CARTESIAN_POINT('',(0.,0.,0.05));
#324=CARTESIAN_POINT('',(0.,0.,0.));
#325=CARTESIAN_POINT('',(1.1,0.,0.));
#326=CARTESIAN_POINT('',(0.,0.,0.05));
#327=CARTESIAN_POINT('',(1.15,-2.81668763803891E-016,0.05));
#328=CARTESIAN_POINT('',(0.,0.,0.));
#329=CARTESIAN_POINT('',(0.0749999999999998,1.14755174175285,0.825));
#330=CARTESIAN_POINT('',(0.0749999999999999,1.14755174175285,0.7));
#331=CARTESIAN_POINT('',(0.0749999999999999,1.14755174175285,0.95));
#332=CARTESIAN_POINT('',(0.,0.,0.95));
#333=CARTESIAN_POINT('',(-0.075,1.14755174175285,0.95));
#334=CARTESIAN_POINT('',(-0.075,1.14755174175285,0.825));
#335=CARTESIAN_POINT('',(-0.075,1.14755174175285,0.7));
#336=CARTESIAN_POINT('',(0.,0.,0.7));
#337=CARTESIAN_POINT('',(0.,0.,0.));
#338=CARTESIAN_POINT('',(0.,0.,0.));
#339=CARTESIAN_POINT('',(-0.2,0.,0.));
#340=CARTESIAN_POINT('',(0.75,0.,0.92));
#341=CARTESIAN_POINT('',(0.75,0.,1.75));
#342=CARTESIAN_POINT('',(0.71,0.,1.75));
#343=CARTESIAN_POINT('',(0.75,0.,0.92));
#344=CARTESIAN_POINT('',(0.71,0.,0.92));
#345=CARTESIAN_POINT('',(0.75,0.,1.75));
#346=CARTESIAN_POINT('',(-0.75,0.,0.92));
#347=CARTESIAN_POINT('',(-0.75,0.,1.75));
#348=CARTESIAN_POINT('',(-0.71,0.,1.75));
#349=CARTESIAN_POINT('',(-0.75,0.,0.92));
#350=CARTESIAN_POINT('',(-0.71,0.,0.92));
#351=CARTESIAN_POINT('',(-0.75,0.,1.75));
#352=CARTESIAN_POINT('',(0.,0.,0.));
#353=CARTESIAN_POINT('',(0.,0.,0.5));
#354=CARTESIAN_POINT('',(-0.2,0.,0.5));
#355=CARTESIAN_POINT('',(0.,0.,0.5));
#356=CARTESIAN_POINT('',(0.,0.,0.95));
#357=CARTESIAN_POINT('',(0.,0.,0.92));
#358=CARTESIAN_POINT('',(0.075,1.04731800328267,0.92));
#359=CARTESIAN_POINT('',(-0.075,1.04731800328267,0.92));
#360=CARTESIAN_POINT('',(0.075,1.04731800328267,0.95));
#361=CARTESIAN_POINT('',(0.075,1.04731800328267,0.7));
#362=CARTESIAN_POINT('',(0.,0.,0.7));
#363=CARTESIAN_POINT('',(-0.075,1.04731800328267,0.7));
#364=CARTESIAN_POINT('',(-0.075,1.04731800328267,0.95));
#365=CARTESIAN_POINT('',(0.0749999999999999,1.15476627235896,0.95));
#366=CARTESIAN_POINT('',(0.0749999999999999,1.04731800328267,0.7));
#367=CARTESIAN_POINT('',(0.0749999999999999,1.04731800328267,0.935));
#368=CARTESIAN_POINT('',(0.075,1.04731800328267,0.95));
#369=CARTESIAN_POINT('',(0.0749999999999999,0.577383136179478,0.95));
#370=CARTESIAN_POINT('',(-0.075,1.15476627235896,0.95));
#371=CARTESIAN_POINT('',(-0.075,0.577383136179478,0.95));
#372=CARTESIAN_POINT('',(-0.075,1.04731800328267,0.95));
#373=CARTESIAN_POINT('',(-0.075,1.04731800328267,0.935));
#374=CARTESIAN_POINT('',(-0.075,1.26221454143524,0.7));
#375=CARTESIAN_POINT('',(-1.71114550447654E-017,1.15507840065779,0.7));
#376=CARTESIAN_POINT('',(0.,0.,0.95));
#377=CARTESIAN_POINT('',(0.,0.,0.95));
#378=CARTESIAN_POINT('',(0.,0.,0.92));
#379=CARTESIAN_POINT('',(0.,0.,0.95));
#380=TOROIDAL_SURFACE('',#236,1.1,0.05);
#381=CLOSED_SHELL('',(#220,#221,#222,#223,#224,#225,#226,#227,#228,#229,
#230,#231,#232,#233,#234,#235));
#382=MANIFOLD_SOLID_BREP('',#381);
#383=ADVANCED_BREP_SHAPE_REPRESENTATION('',(#382),#33);
ENDSEC;
END-ISO-10303-21;
