ISO-10303-21;
HEADER;
/* Generated by software containing ST-Developer
 * from STEP Tools, Inc. (www.steptools.com) 
 */

FILE_DESCRIPTION(
/* description */ ('Alibre Inc.'),
/* implementation_level */ '2;1');

FILE_NAME(
/* name */ 'export0',
/* time_stamp */ '2018-06-23T07:18:08-05:00',
/* author */ (''),
/* organization */ (''),
/* preprocessor_version */ 'ST-DEVELOPER v17',
/* originating_system */ 'Alibre',
/* authorisation */ '');

FILE_SCHEMA (('AUTOMOTIVE_DESIGN'));
ENDSEC;

DATA;
#10=STYLED_ITEM('NAME_0',(#18),#719);
#11=MECHANICAL_DESIGN_GEOMETRIC_PRESENTATION_REPRESENTATION('NAME_0',(#10),
#33);
#12=COLOUR_RGB('',0.882352941176471,0.882352941176471,0.882352941176471);
#13=FILL_AREA_STYLE_COLOUR('NAME_0',#12);
#14=FILL_AREA_STYLE('NAME_0',(#13));
#15=SURFACE_STYLE_FILL_AREA(#14);
#16=SURFACE_SIDE_STYLE('NAME_0',(#15));
#17=SURFACE_STYLE_USAGE(.POSITIVE.,#16);
#18=PRESENTATION_STYLE_ASSIGNMENT((#17));
#19=PRODUCT_DEFINITION_CONTEXT('part definition',#26,'design');
#20=SHAPE_DEFINITION_REPRESENTATION(#21,#720);
#21=PRODUCT_DEFINITION_SHAPE('PRODUCT_VERSION_ID',
'PRODUCT_VERSION_DESCR',#22);
#22=PRODUCT_DEFINITION('PRODUCT_VERSION_ID','PRODUCT_VERSION_DESCR',#23,
#19);
#23=PRODUCT_DEFINITION_FORMATION_WITH_SPECIFIED_SOURCE(
'PRODUCT_VERSION_ID','PRODUCT_VERSION_DESCR',#28,.MADE.);
#24=PRODUCT_RELATED_PRODUCT_CATEGORY('part','part',(#28));
#25=APPLICATION_PROTOCOL_DEFINITION('Draft International Standard',
'automotive_design',1994,#26);
#26=APPLICATION_CONTEXT('automotive_Design');
#27=PRODUCT_CONTEXT('3D Mechanical Parts',#26,'mechanical');
#28=PRODUCT('','EM-6050N','',(#27));
#29=(
LENGTH_UNIT()
NAMED_UNIT(*)
SI_UNIT(.CENTI.,.METRE.)
);
#30=(
NAMED_UNIT(*)
PLANE_ANGLE_UNIT()
SI_UNIT($,.RADIAN.)
);
#31=(
NAMED_UNIT(*)
SI_UNIT($,.STERADIAN.)
SOLID_ANGLE_UNIT()
);
#32=UNCERTAINTY_MEASURE_WITH_UNIT(LENGTH_MEASURE(1.E-6),#29,
'DISTANCE_ACCURACY_VALUE',
'Maximum model space distance between geometric entities at asserted c
onnectivities');
#33=(
GEOMETRIC_REPRESENTATION_CONTEXT(3)
GLOBAL_UNCERTAINTY_ASSIGNED_CONTEXT((#32))
GLOBAL_UNIT_ASSIGNED_CONTEXT((#31,#30,#29))
REPRESENTATION_CONTEXT('ID1','3D')
);
#34=PLANE('',#430);
#35=PLANE('',#433);
#36=PLANE('',#434);
#37=PLANE('',#449);
#38=PLANE('',#452);
#39=PLANE('',#453);
#40=PLANE('',#461);
#41=PLANE('',#464);
#42=PLANE('',#473);
#43=PLANE('',#476);
#44=VECTOR('',#490,1.);
#45=VECTOR('',#491,1.);
#46=VECTOR('',#496,1.);
#47=VECTOR('',#497,1.);
#48=VECTOR('',#504,1.);
#49=VECTOR('',#505,1.);
#50=VECTOR('',#506,1.);
#51=VECTOR('',#509,1.);
#52=VECTOR('',#514,1.);
#53=VECTOR('',#515,1.);
#54=VECTOR('',#533,1.);
#55=VECTOR('',#534,1.);
#56=VECTOR('',#539,1.);
#57=VECTOR('',#540,1.);
#58=VECTOR('',#547,1.);
#59=VECTOR('',#548,1.);
#60=VECTOR('',#549,1.);
#61=VECTOR('',#552,1.);
#62=VECTOR('',#557,1.);
#63=VECTOR('',#558,1.);
#64=LINE('',#610,#44);
#65=LINE('',#611,#45);
#66=LINE('',#616,#46);
#67=LINE('',#617,#47);
#68=LINE('',#622,#48);
#69=LINE('',#624,#49);
#70=LINE('',#626,#50);
#71=LINE('',#628,#51);
#72=LINE('',#633,#52);
#73=LINE('',#635,#53);
#74=LINE('',#651,#54);
#75=LINE('',#652,#55);
#76=LINE('',#657,#56);
#77=LINE('',#658,#57);
#78=LINE('',#663,#58);
#79=LINE('',#665,#59);
#80=LINE('',#667,#60);
#81=LINE('',#669,#61);
#82=LINE('',#674,#62);
#83=LINE('',#676,#63);
#84=CYLINDRICAL_SURFACE('',#423,0.02);
#85=CYLINDRICAL_SURFACE('',#425,0.02);
#86=CYLINDRICAL_SURFACE('',#431,0.05);
#87=CYLINDRICAL_SURFACE('',#435,0.05);
#88=CYLINDRICAL_SURFACE('',#442,0.02);
#89=CYLINDRICAL_SURFACE('',#444,0.02);
#90=CYLINDRICAL_SURFACE('',#450,0.05);
#91=CYLINDRICAL_SURFACE('',#454,0.05);
#92=CYLINDRICAL_SURFACE('',#459,0.25);
#93=CYLINDRICAL_SURFACE('',#468,0.3);
#94=CYLINDRICAL_SURFACE('',#470,0.2875);
#95=VERTEX_POINT('',#599);
#96=VERTEX_POINT('',#600);
#97=VERTEX_POINT('',#602);
#98=VERTEX_POINT('',#604);
#99=VERTEX_POINT('',#608);
#100=VERTEX_POINT('',#609);
#101=VERTEX_POINT('',#614);
#102=VERTEX_POINT('',#615);
#103=VERTEX_POINT('',#623);
#104=VERTEX_POINT('',#625);
#105=VERTEX_POINT('',#629);
#106=VERTEX_POINT('',#634);
#107=VERTEX_POINT('',#640);
#108=VERTEX_POINT('',#641);
#109=VERTEX_POINT('',#643);
#110=VERTEX_POINT('',#645);
#111=VERTEX_POINT('',#649);
#112=VERTEX_POINT('',#650);
#113=VERTEX_POINT('',#655);
#114=VERTEX_POINT('',#656);
#115=VERTEX_POINT('',#664);
#116=VERTEX_POINT('',#666);
#117=VERTEX_POINT('',#670);
#118=VERTEX_POINT('',#675);
#119=VERTEX_POINT('',#681);
#120=VERTEX_POINT('',#683);
#121=VERTEX_POINT('',#686);
#122=VERTEX_POINT('',#690);
#123=VERTEX_POINT('',#693);
#124=VERTEX_POINT('',#696);
#125=VERTEX_POINT('',#699);
#126=VERTEX_POINT('',#702);
#127=VERTEX_POINT('',#704);
#128=VERTEX_POINT('',#708);
#129=CIRCLE('',#419,0.02);
#130=CIRCLE('',#420,0.03);
#131=CIRCLE('',#421,0.02);
#132=CIRCLE('',#422,0.05);
#133=CIRCLE('',#424,0.02);
#134=CIRCLE('',#426,0.02);
#135=CIRCLE('',#428,0.05);
#136=CIRCLE('',#429,0.03);
#137=CIRCLE('',#432,0.05);
#138=CIRCLE('',#436,0.05);
#139=CIRCLE('',#438,0.02);
#140=CIRCLE('',#439,0.03);
#141=CIRCLE('',#440,0.02);
#142=CIRCLE('',#441,0.05);
#143=CIRCLE('',#443,0.02);
#144=CIRCLE('',#445,0.02);
#145=CIRCLE('',#447,0.05);
#146=CIRCLE('',#448,0.03);
#147=CIRCLE('',#451,0.05);
#148=CIRCLE('',#455,0.05);
#149=CIRCLE('',#457,0.25);
#150=CIRCLE('',#458,0.24);
#151=CIRCLE('',#460,0.25);
#152=CIRCLE('',#463,0.26);
#153=CIRCLE('',#465,0.29);
#154=CIRCLE('',#467,0.3);
#155=CIRCLE('',#469,0.3);
#156=CIRCLE('',#471,0.2875);
#157=CIRCLE('',#472,0.2875);
#158=CIRCLE('',#475,0.29);
#159=EDGE_CURVE('',#95,#96,#129,.T.);
#160=EDGE_CURVE('',#96,#97,#130,.T.);
#161=EDGE_CURVE('',#97,#98,#131,.T.);
#162=EDGE_CURVE('',#98,#95,#132,.T.);
#163=EDGE_CURVE('',#99,#100,#133,.T.);
#164=EDGE_CURVE('',#100,#96,#64,.T.);
#165=EDGE_CURVE('',#95,#99,#65,.T.);
#166=EDGE_CURVE('',#101,#102,#134,.T.);
#167=EDGE_CURVE('',#102,#98,#66,.T.);
#168=EDGE_CURVE('',#97,#101,#67,.T.);
#169=EDGE_CURVE('',#99,#102,#135,.T.);
#170=EDGE_CURVE('',#101,#100,#136,.T.);
#171=EDGE_CURVE('',#103,#95,#68,.T.);
#172=EDGE_CURVE('',#104,#103,#69,.T.);
#173=EDGE_CURVE('',#99,#104,#70,.T.);
#174=EDGE_CURVE('',#98,#105,#71,.T.);
#175=EDGE_CURVE('',#105,#103,#137,.F.);
#176=EDGE_CURVE('',#106,#102,#72,.T.);
#177=EDGE_CURVE('',#105,#106,#73,.T.);
#178=EDGE_CURVE('',#104,#106,#138,.F.);
#179=EDGE_CURVE('',#107,#108,#139,.T.);
#180=EDGE_CURVE('',#108,#109,#140,.T.);
#181=EDGE_CURVE('',#109,#110,#141,.T.);
#182=EDGE_CURVE('',#110,#107,#142,.T.);
#183=EDGE_CURVE('',#111,#112,#143,.T.);
#184=EDGE_CURVE('',#112,#108,#74,.T.);
#185=EDGE_CURVE('',#107,#111,#75,.T.);
#186=EDGE_CURVE('',#113,#114,#144,.T.);
#187=EDGE_CURVE('',#114,#110,#76,.T.);
#188=EDGE_CURVE('',#109,#113,#77,.T.);
#189=EDGE_CURVE('',#111,#114,#145,.T.);
#190=EDGE_CURVE('',#113,#112,#146,.T.);
#191=EDGE_CURVE('',#115,#107,#78,.T.);
#192=EDGE_CURVE('',#116,#115,#79,.T.);
#193=EDGE_CURVE('',#111,#116,#80,.T.);
#194=EDGE_CURVE('',#110,#117,#81,.T.);
#195=EDGE_CURVE('',#117,#115,#147,.F.);
#196=EDGE_CURVE('',#118,#114,#82,.T.);
#197=EDGE_CURVE('',#117,#118,#83,.T.);
#198=EDGE_CURVE('',#116,#118,#148,.F.);
#199=EDGE_CURVE('',#119,#119,#149,.T.);
#200=EDGE_CURVE('',#120,#120,#150,.T.);
#201=EDGE_CURVE('',#121,#121,#151,.T.);
#202=EDGE_CURVE('',#122,#122,#152,.T.);
#203=EDGE_CURVE('',#123,#123,#153,.T.);
#204=EDGE_CURVE('',#124,#124,#154,.T.);
#205=EDGE_CURVE('',#125,#125,#155,.T.);
#206=EDGE_CURVE('',#126,#126,#156,.T.);
#207=EDGE_CURVE('',#127,#127,#157,.T.);
#208=EDGE_CURVE('',#128,#128,#158,.T.);
#209=ORIENTED_EDGE('',*,*,#159,.T.);
#210=ORIENTED_EDGE('',*,*,#160,.T.);
#211=ORIENTED_EDGE('',*,*,#161,.T.);
#212=ORIENTED_EDGE('',*,*,#162,.T.);
#213=ORIENTED_EDGE('',*,*,#163,.T.);
#214=ORIENTED_EDGE('',*,*,#164,.T.);
#215=ORIENTED_EDGE('',*,*,#159,.F.);
#216=ORIENTED_EDGE('',*,*,#165,.T.);
#217=ORIENTED_EDGE('',*,*,#166,.T.);
#218=ORIENTED_EDGE('',*,*,#167,.T.);
#219=ORIENTED_EDGE('',*,*,#161,.F.);
#220=ORIENTED_EDGE('',*,*,#168,.T.);
#221=ORIENTED_EDGE('',*,*,#163,.F.);
#222=ORIENTED_EDGE('',*,*,#169,.T.);
#223=ORIENTED_EDGE('',*,*,#166,.F.);
#224=ORIENTED_EDGE('',*,*,#170,.T.);
#225=ORIENTED_EDGE('',*,*,#165,.F.);
#226=ORIENTED_EDGE('',*,*,#171,.F.);
#227=ORIENTED_EDGE('',*,*,#172,.F.);
#228=ORIENTED_EDGE('',*,*,#173,.F.);
#229=ORIENTED_EDGE('',*,*,#162,.F.);
#230=ORIENTED_EDGE('',*,*,#174,.T.);
#231=ORIENTED_EDGE('',*,*,#175,.T.);
#232=ORIENTED_EDGE('',*,*,#171,.T.);
#233=ORIENTED_EDGE('',*,*,#160,.F.);
#234=ORIENTED_EDGE('',*,*,#164,.F.);
#235=ORIENTED_EDGE('',*,*,#170,.F.);
#236=ORIENTED_EDGE('',*,*,#168,.F.);
#237=ORIENTED_EDGE('',*,*,#167,.F.);
#238=ORIENTED_EDGE('',*,*,#176,.F.);
#239=ORIENTED_EDGE('',*,*,#177,.F.);
#240=ORIENTED_EDGE('',*,*,#174,.F.);
#241=ORIENTED_EDGE('',*,*,#169,.F.);
#242=ORIENTED_EDGE('',*,*,#173,.T.);
#243=ORIENTED_EDGE('',*,*,#178,.T.);
#244=ORIENTED_EDGE('',*,*,#176,.T.);
#245=ORIENTED_EDGE('',*,*,#179,.T.);
#246=ORIENTED_EDGE('',*,*,#180,.T.);
#247=ORIENTED_EDGE('',*,*,#181,.T.);
#248=ORIENTED_EDGE('',*,*,#182,.T.);
#249=ORIENTED_EDGE('',*,*,#183,.T.);
#250=ORIENTED_EDGE('',*,*,#184,.T.);
#251=ORIENTED_EDGE('',*,*,#179,.F.);
#252=ORIENTED_EDGE('',*,*,#185,.T.);
#253=ORIENTED_EDGE('',*,*,#186,.T.);
#254=ORIENTED_EDGE('',*,*,#187,.T.);
#255=ORIENTED_EDGE('',*,*,#181,.F.);
#256=ORIENTED_EDGE('',*,*,#188,.T.);
#257=ORIENTED_EDGE('',*,*,#183,.F.);
#258=ORIENTED_EDGE('',*,*,#189,.T.);
#259=ORIENTED_EDGE('',*,*,#186,.F.);
#260=ORIENTED_EDGE('',*,*,#190,.T.);
#261=ORIENTED_EDGE('',*,*,#185,.F.);
#262=ORIENTED_EDGE('',*,*,#191,.F.);
#263=ORIENTED_EDGE('',*,*,#192,.F.);
#264=ORIENTED_EDGE('',*,*,#193,.F.);
#265=ORIENTED_EDGE('',*,*,#182,.F.);
#266=ORIENTED_EDGE('',*,*,#194,.T.);
#267=ORIENTED_EDGE('',*,*,#195,.T.);
#268=ORIENTED_EDGE('',*,*,#191,.T.);
#269=ORIENTED_EDGE('',*,*,#180,.F.);
#270=ORIENTED_EDGE('',*,*,#184,.F.);
#271=ORIENTED_EDGE('',*,*,#190,.F.);
#272=ORIENTED_EDGE('',*,*,#188,.F.);
#273=ORIENTED_EDGE('',*,*,#187,.F.);
#274=ORIENTED_EDGE('',*,*,#196,.F.);
#275=ORIENTED_EDGE('',*,*,#197,.F.);
#276=ORIENTED_EDGE('',*,*,#194,.F.);
#277=ORIENTED_EDGE('',*,*,#189,.F.);
#278=ORIENTED_EDGE('',*,*,#193,.T.);
#279=ORIENTED_EDGE('',*,*,#198,.T.);
#280=ORIENTED_EDGE('',*,*,#196,.T.);
#281=ORIENTED_EDGE('',*,*,#199,.T.);
#282=ORIENTED_EDGE('',*,*,#200,.T.);
#283=ORIENTED_EDGE('',*,*,#201,.F.);
#284=ORIENTED_EDGE('',*,*,#199,.F.);
#285=ORIENTED_EDGE('',*,*,#175,.F.);
#286=ORIENTED_EDGE('',*,*,#177,.T.);
#287=ORIENTED_EDGE('',*,*,#178,.F.);
#288=ORIENTED_EDGE('',*,*,#172,.T.);
#289=ORIENTED_EDGE('',*,*,#195,.F.);
#290=ORIENTED_EDGE('',*,*,#197,.T.);
#291=ORIENTED_EDGE('',*,*,#198,.F.);
#292=ORIENTED_EDGE('',*,*,#192,.T.);
#293=ORIENTED_EDGE('',*,*,#200,.F.);
#294=ORIENTED_EDGE('',*,*,#201,.T.);
#295=ORIENTED_EDGE('',*,*,#202,.T.);
#296=ORIENTED_EDGE('',*,*,#203,.F.);
#297=ORIENTED_EDGE('',*,*,#202,.F.);
#298=ORIENTED_EDGE('',*,*,#203,.T.);
#299=ORIENTED_EDGE('',*,*,#204,.T.);
#300=ORIENTED_EDGE('',*,*,#205,.F.);
#301=ORIENTED_EDGE('',*,*,#204,.F.);
#302=ORIENTED_EDGE('',*,*,#206,.T.);
#303=ORIENTED_EDGE('',*,*,#207,.F.);
#304=ORIENTED_EDGE('',*,*,#206,.F.);
#305=ORIENTED_EDGE('',*,*,#208,.T.);
#306=ORIENTED_EDGE('',*,*,#205,.T.);
#307=ORIENTED_EDGE('',*,*,#207,.T.);
#308=ORIENTED_EDGE('',*,*,#208,.F.);
#309=EDGE_LOOP('',(#209,#210,#211,#212));
#310=EDGE_LOOP('',(#213,#214,#215,#216));
#311=EDGE_LOOP('',(#217,#218,#219,#220));
#312=EDGE_LOOP('',(#221,#222,#223,#224));
#313=EDGE_LOOP('',(#225,#226,#227,#228));
#314=EDGE_LOOP('',(#229,#230,#231,#232));
#315=EDGE_LOOP('',(#233,#234,#235,#236));
#316=EDGE_LOOP('',(#237,#238,#239,#240));
#317=EDGE_LOOP('',(#241,#242,#243,#244));
#318=EDGE_LOOP('',(#245,#246,#247,#248));
#319=EDGE_LOOP('',(#249,#250,#251,#252));
#320=EDGE_LOOP('',(#253,#254,#255,#256));
#321=EDGE_LOOP('',(#257,#258,#259,#260));
#322=EDGE_LOOP('',(#261,#262,#263,#264));
#323=EDGE_LOOP('',(#265,#266,#267,#268));
#324=EDGE_LOOP('',(#269,#270,#271,#272));
#325=EDGE_LOOP('',(#273,#274,#275,#276));
#326=EDGE_LOOP('',(#277,#278,#279,#280));
#327=EDGE_LOOP('',(#281));
#328=EDGE_LOOP('',(#282));
#329=EDGE_LOOP('',(#283));
#330=EDGE_LOOP('',(#284));
#331=EDGE_LOOP('',(#285,#286,#287,#288));
#332=EDGE_LOOP('',(#289,#290,#291,#292));
#333=EDGE_LOOP('',(#293));
#334=EDGE_LOOP('',(#294));
#335=EDGE_LOOP('',(#295));
#336=EDGE_LOOP('',(#296));
#337=EDGE_LOOP('',(#297));
#338=EDGE_LOOP('',(#298));
#339=EDGE_LOOP('',(#299));
#340=EDGE_LOOP('',(#300));
#341=EDGE_LOOP('',(#301));
#342=EDGE_LOOP('',(#302));
#343=EDGE_LOOP('',(#303));
#344=EDGE_LOOP('',(#304));
#345=EDGE_LOOP('',(#305));
#346=EDGE_LOOP('',(#306));
#347=EDGE_LOOP('',(#307));
#348=EDGE_LOOP('',(#308));
#349=FACE_BOUND('',#309,.T.);
#350=FACE_BOUND('',#310,.T.);
#351=FACE_BOUND('',#311,.T.);
#352=FACE_BOUND('',#312,.T.);
#353=FACE_BOUND('',#313,.T.);
#354=FACE_BOUND('',#314,.T.);
#355=FACE_BOUND('',#315,.T.);
#356=FACE_BOUND('',#316,.T.);
#357=FACE_BOUND('',#317,.T.);
#358=FACE_BOUND('',#318,.T.);
#359=FACE_BOUND('',#319,.T.);
#360=FACE_BOUND('',#320,.T.);
#361=FACE_BOUND('',#321,.T.);
#362=FACE_BOUND('',#322,.T.);
#363=FACE_BOUND('',#323,.T.);
#364=FACE_BOUND('',#324,.T.);
#365=FACE_BOUND('',#325,.T.);
#366=FACE_BOUND('',#326,.T.);
#367=FACE_BOUND('',#327,.T.);
#368=FACE_BOUND('',#328,.T.);
#369=FACE_BOUND('',#329,.T.);
#370=FACE_BOUND('',#330,.T.);
#371=FACE_BOUND('',#331,.T.);
#372=FACE_BOUND('',#332,.T.);
#373=FACE_BOUND('',#333,.T.);
#374=FACE_BOUND('',#334,.T.);
#375=FACE_BOUND('',#335,.T.);
#376=FACE_BOUND('',#336,.T.);
#377=FACE_BOUND('',#337,.T.);
#378=FACE_BOUND('',#338,.T.);
#379=FACE_BOUND('',#339,.T.);
#380=FACE_BOUND('',#340,.T.);
#381=FACE_BOUND('',#341,.T.);
#382=FACE_BOUND('',#342,.T.);
#383=FACE_BOUND('',#343,.T.);
#384=FACE_BOUND('',#344,.T.);
#385=FACE_BOUND('',#345,.T.);
#386=FACE_BOUND('',#346,.T.);
#387=FACE_BOUND('',#347,.T.);
#388=FACE_BOUND('',#348,.T.);
#389=ADVANCED_FACE('',(#349),#710,.T.);
#390=ADVANCED_FACE('',(#350),#84,.T.);
#391=ADVANCED_FACE('',(#351),#85,.T.);
#392=ADVANCED_FACE('',(#352),#711,.T.);
#393=ADVANCED_FACE('',(#353),#34,.T.);
#394=ADVANCED_FACE('',(#354),#86,.T.);
#395=ADVANCED_FACE('',(#355),#35,.F.);
#396=ADVANCED_FACE('',(#356),#36,.T.);
#397=ADVANCED_FACE('',(#357),#87,.T.);
#398=ADVANCED_FACE('',(#358),#712,.T.);
#399=ADVANCED_FACE('',(#359),#88,.T.);
#400=ADVANCED_FACE('',(#360),#89,.T.);
#401=ADVANCED_FACE('',(#361),#713,.T.);
#402=ADVANCED_FACE('',(#362),#37,.T.);
#403=ADVANCED_FACE('',(#363),#90,.T.);
#404=ADVANCED_FACE('',(#364),#38,.F.);
#405=ADVANCED_FACE('',(#365),#39,.T.);
#406=ADVANCED_FACE('',(#366),#91,.T.);
#407=ADVANCED_FACE('',(#367,#368),#714,.F.);
#408=ADVANCED_FACE('',(#369,#370),#92,.F.);
#409=ADVANCED_FACE('',(#371,#372,#373),#40,.T.);
#410=ADVANCED_FACE('',(#374,#375),#715,.T.);
#411=ADVANCED_FACE('',(#376,#377),#41,.F.);
#412=ADVANCED_FACE('',(#378,#379),#716,.T.);
#413=ADVANCED_FACE('',(#380,#381),#93,.T.);
#414=ADVANCED_FACE('',(#382,#383),#94,.T.);
#415=ADVANCED_FACE('',(#384),#42,.T.);
#416=ADVANCED_FACE('',(#385,#386),#717,.T.);
#417=ADVANCED_FACE('',(#387,#388),#43,.T.);
#418=AXIS2_PLACEMENT_3D('',#597,#477,$);
#419=AXIS2_PLACEMENT_3D('',#598,#478,#479);
#420=AXIS2_PLACEMENT_3D('',#601,#480,#481);
#421=AXIS2_PLACEMENT_3D('',#603,#482,#483);
#422=AXIS2_PLACEMENT_3D('',#605,#484,#485);
#423=AXIS2_PLACEMENT_3D('',#606,#486,#487);
#424=AXIS2_PLACEMENT_3D('',#607,#488,#489);
#425=AXIS2_PLACEMENT_3D('',#612,#492,#493);
#426=AXIS2_PLACEMENT_3D('',#613,#494,#495);
#427=AXIS2_PLACEMENT_3D('',#618,#498,$);
#428=AXIS2_PLACEMENT_3D('',#619,#499,#500);
#429=AXIS2_PLACEMENT_3D('',#620,#501,#502);
#430=AXIS2_PLACEMENT_3D('',#621,#503,$);
#431=AXIS2_PLACEMENT_3D('',#627,#507,#508);
#432=AXIS2_PLACEMENT_3D('',#630,#510,#511);
#433=AXIS2_PLACEMENT_3D('',#631,#512,$);
#434=AXIS2_PLACEMENT_3D('',#632,#513,$);
#435=AXIS2_PLACEMENT_3D('',#636,#516,#517);
#436=AXIS2_PLACEMENT_3D('',#637,#518,#519);
#437=AXIS2_PLACEMENT_3D('',#638,#520,$);
#438=AXIS2_PLACEMENT_3D('',#639,#521,#522);
#439=AXIS2_PLACEMENT_3D('',#642,#523,#524);
#440=AXIS2_PLACEMENT_3D('',#644,#525,#526);
#441=AXIS2_PLACEMENT_3D('',#646,#527,#528);
#442=AXIS2_PLACEMENT_3D('',#647,#529,#530);
#443=AXIS2_PLACEMENT_3D('',#648,#531,#532);
#444=AXIS2_PLACEMENT_3D('',#653,#535,#536);
#445=AXIS2_PLACEMENT_3D('',#654,#537,#538);
#446=AXIS2_PLACEMENT_3D('',#659,#541,$);
#447=AXIS2_PLACEMENT_3D('',#660,#542,#543);
#448=AXIS2_PLACEMENT_3D('',#661,#544,#545);
#449=AXIS2_PLACEMENT_3D('',#662,#546,$);
#450=AXIS2_PLACEMENT_3D('',#668,#550,#551);
#451=AXIS2_PLACEMENT_3D('',#671,#553,#554);
#452=AXIS2_PLACEMENT_3D('',#672,#555,$);
#453=AXIS2_PLACEMENT_3D('',#673,#556,$);
#454=AXIS2_PLACEMENT_3D('',#677,#559,#560);
#455=AXIS2_PLACEMENT_3D('',#678,#561,#562);
#456=AXIS2_PLACEMENT_3D('',#679,#563,$);
#457=AXIS2_PLACEMENT_3D('',#680,#564,#565);
#458=AXIS2_PLACEMENT_3D('',#682,#566,#567);
#459=AXIS2_PLACEMENT_3D('',#684,#568,#569);
#460=AXIS2_PLACEMENT_3D('',#685,#570,#571);
#461=AXIS2_PLACEMENT_3D('',#687,#572,$);
#462=AXIS2_PLACEMENT_3D('',#688,#573,$);
#463=AXIS2_PLACEMENT_3D('',#689,#574,#575);
#464=AXIS2_PLACEMENT_3D('',#691,#576,$);
#465=AXIS2_PLACEMENT_3D('',#692,#577,#578);
#466=AXIS2_PLACEMENT_3D('',#694,#579,$);
#467=AXIS2_PLACEMENT_3D('',#695,#580,#581);
#468=AXIS2_PLACEMENT_3D('',#697,#582,#583);
#469=AXIS2_PLACEMENT_3D('',#698,#584,#585);
#470=AXIS2_PLACEMENT_3D('',#700,#586,#587);
#471=AXIS2_PLACEMENT_3D('',#701,#588,#589);
#472=AXIS2_PLACEMENT_3D('',#703,#590,#591);
#473=AXIS2_PLACEMENT_3D('',#705,#592,$);
#474=AXIS2_PLACEMENT_3D('',#706,#593,$);
#475=AXIS2_PLACEMENT_3D('',#707,#594,#595);
#476=AXIS2_PLACEMENT_3D('',#709,#596,$);
#477=DIRECTION('',(-1.67440924269487E-31,-2.87452230505559E-33,1.));
#478=DIRECTION('',(6.12323399573676E-17,-1.,1.02527995976451E-47));
#479=DIRECTION('',(-0.02,0.,0.));
#480=DIRECTION('',(-1.67440924269487E-31,-2.87452230505559E-33,1.));
#481=DIRECTION('',(-2.00929109123385E-33,-0.03,-8.62356691516678E-35));
#482=DIRECTION('',(-6.12323399573677E-17,-1.,-1.02527995976451E-47));
#483=DIRECTION('',(0.,0.,-0.02));
#484=DIRECTION('',(1.67440924269487E-31,2.87452230505559E-33,-1.));
#485=DIRECTION('',(-3.34881848538975E-33,-0.05,0.));
#486=DIRECTION('',(0.,-1.,-2.87452230505559E-33));
#487=DIRECTION('',(-0.014142135623731,0.,-0.0141421356237309));
#488=DIRECTION('',(0.,-1.,-2.87452230505559E-33));
#489=DIRECTION('',(-0.02,0.,0.));
#490=DIRECTION('',(0.,-1.,-2.87452230505559E-33));
#491=DIRECTION('',(0.,1.,2.87452230505559E-33));
#492=DIRECTION('',(-1.38777878078145E-16,1.,2.87452230505557E-33));
#493=DIRECTION('',(0.0141421356237309,1.96261557335472E-18,-0.014142135623731));
#494=DIRECTION('',(1.38777878078145E-16,-1.,-2.87452230505557E-33));
#495=DIRECTION('',(0.,0.,-0.02));
#496=DIRECTION('',(1.38777878078145E-16,-1.,-2.87452230505557E-33));
#497=DIRECTION('',(-1.38777878078145E-16,1.,2.87452230505557E-33));
#498=DIRECTION('',(-1.67440924269487E-31,-2.87452230505559E-33,1.));
#499=DIRECTION('',(1.67440924269487E-31,2.87452230505559E-33,-1.));
#500=DIRECTION('',(-1.38777878078145E-17,0.05,0.));
#501=DIRECTION('',(-1.67440924269487E-31,-2.87452230505559E-33,1.));
#502=DIRECTION('',(-8.32667268468868E-18,0.03,8.62356691516664E-35));
#503=DIRECTION('',(-1.,0.,0.));
#504=DIRECTION('',(0.,0.,-1.));
#505=DIRECTION('',(0.,-1.,0.));
#506=DIRECTION('',(0.,0.,1.));
#507=DIRECTION('',(0.,0.,-1.));
#508=DIRECTION('',(0.0353553390593274,-0.0353553390593274,0.));
#509=DIRECTION('',(0.,0.,1.));
#510=DIRECTION('',(0.,0.,1.));
#511=DIRECTION('',(0.0353553390593274,-0.0353553390593274,0.));
#512=DIRECTION('',(-1.67440924269487E-31,-2.87452230505559E-33,1.));
#513=DIRECTION('',(1.,1.38777878078145E-16,0.));
#514=DIRECTION('',(0.,0.,-1.));
#515=DIRECTION('',(-1.38777878078145E-16,1.,0.));
#516=DIRECTION('',(0.,0.,-1.));
#517=DIRECTION('',(-0.0353553390593274,0.0353553390593274,0.));
#518=DIRECTION('',(0.,0.,1.));
#519=DIRECTION('',(-0.0353553390593274,0.0353553390593274,0.));
#520=DIRECTION('',(1.67440924269487E-31,-2.87452230505559E-33,1.));
#521=DIRECTION('',(-2.27765793651141E-16,1.,8.46115073530459E-47));
#522=DIRECTION('',(0.02,-6.93889390390723E-18,0.));
#523=DIRECTION('',(1.67440924269487E-31,-2.87452230505559E-33,1.));
#524=DIRECTION('',(8.32667268468868E-18,0.03,8.62356691516664E-35));
#525=DIRECTION('',(3.38788096113657E-16,1.,-1.02527995976451E-47));
#526=DIRECTION('',(0.,0.,-0.02));
#527=DIRECTION('',(-1.67440924269487E-31,2.87452230505559E-33,-1.));
#528=DIRECTION('',(1.38777878078145E-17,0.05,0.));
#529=DIRECTION('',(0.,1.,2.87452230505559E-33));
#530=DIRECTION('',(0.014142135623731,0.,-0.0141421356237309));
#531=DIRECTION('',(0.,1.,2.87452230505559E-33));
#532=DIRECTION('',(0.02,0.,0.));
#533=DIRECTION('',(0.,1.,2.87452230505559E-33));
#534=DIRECTION('',(0.,-1.,-2.87452230505559E-33));
#535=DIRECTION('',(-1.38777878078145E-16,-1.,-2.87452230505557E-33));
#536=DIRECTION('',(-0.0141421356237309,1.96261557335472E-18,-0.014142135623731));
#537=DIRECTION('',(1.38777878078145E-16,1.,2.87452230505557E-33));
#538=DIRECTION('',(0.,0.,-0.02));
#539=DIRECTION('',(1.38777878078145E-16,1.,2.87452230505557E-33));
#540=DIRECTION('',(-1.38777878078145E-16,-1.,-2.87452230505557E-33));
#541=DIRECTION('',(1.67440924269487E-31,-2.87452230505559E-33,1.));
#542=DIRECTION('',(-1.67440924269487E-31,2.87452230505559E-33,-1.));
#543=DIRECTION('',(-1.38777878078145E-17,-0.05,0.));
#544=DIRECTION('',(1.67440924269487E-31,-2.87452230505559E-33,1.));
#545=DIRECTION('',(-8.32667268468867E-18,-0.03,-8.62356691516664E-35));
#546=DIRECTION('',(1.,0.,0.));
#547=DIRECTION('',(0.,0.,-1.));
#548=DIRECTION('',(0.,1.,0.));
#549=DIRECTION('',(0.,0.,1.));
#550=DIRECTION('',(0.,0.,-1.));
#551=DIRECTION('',(0.0353553390593274,0.0353553390593274,0.));
#552=DIRECTION('',(0.,0.,1.));
#553=DIRECTION('',(0.,0.,1.));
#554=DIRECTION('',(-0.0353553390593274,0.0353553390593274,0.));
#555=DIRECTION('',(1.67440924269487E-31,-2.87452230505559E-33,1.));
#556=DIRECTION('',(-1.,1.38777878078145E-16,0.));
#557=DIRECTION('',(0.,0.,-1.));
#558=DIRECTION('',(-1.38777878078145E-16,-1.,0.));
#559=DIRECTION('',(0.,0.,-1.));
#560=DIRECTION('',(0.0353553390593274,-0.0353553390593274,0.));
#561=DIRECTION('',(0.,0.,1.));
#562=DIRECTION('',(0.0353553390593274,-0.0353553390593274,0.));
#563=DIRECTION('',(0.,0.,-1.));
#564=DIRECTION('',(0.,0.,-1.));
#565=DIRECTION('',(0.25,3.06161699786838E-17,0.));
#566=DIRECTION('',(0.,0.,1.));
#567=DIRECTION('',(0.24,2.93915231795365E-17,0.));
#568=DIRECTION('',(0.,0.,1.));
#569=DIRECTION('',(-0.25,0.,0.));
#570=DIRECTION('',(0.,0.,1.));
#571=DIRECTION('',(0.25,-3.06161699786838E-17,0.));
#572=DIRECTION('',(0.,0.,-1.));
#573=DIRECTION('',(0.,0.,1.));
#574=DIRECTION('',(0.,0.,-1.));
#575=DIRECTION('',(0.26,-3.18408167778312E-17,0.));
#576=DIRECTION('',(0.,0.,1.));
#577=DIRECTION('',(0.,0.,1.));
#578=DIRECTION('',(-0.29,3.55147571752732E-17,0.));
#579=DIRECTION('',(0.,0.,1.));
#580=DIRECTION('',(0.,0.,-1.));
#581=DIRECTION('',(-0.3,3.67394039744206E-17,0.));
#582=DIRECTION('',(0.,0.,1.));
#583=DIRECTION('',(0.3,0.,0.));
#584=DIRECTION('',(0.,0.,1.));
#585=DIRECTION('',(-0.3,-3.67394039744206E-17,0.));
#586=DIRECTION('',(0.,0.,1.));
#587=DIRECTION('',(0.2875,0.,0.));
#588=DIRECTION('',(0.,0.,-1.));
#589=DIRECTION('',(0.2875,0.,0.));
#590=DIRECTION('',(0.,0.,-1.));
#591=DIRECTION('',(0.2875,0.,0.));
#592=DIRECTION('',(0.,0.,1.));
#593=DIRECTION('',(0.,0.,-1.));
#594=DIRECTION('',(0.,0.,-1.));
#595=DIRECTION('',(-0.29,-3.55147571752732E-17,0.));
#596=DIRECTION('',(0.,0.,1.));
#597=CARTESIAN_POINT('',(0.0875,-0.05,0.02));
#598=CARTESIAN_POINT('',(0.0575,-0.05,0.02));
#599=CARTESIAN_POINT('',(0.0375,-0.05,0.02));
#600=CARTESIAN_POINT('',(0.0575,-0.05,-5.02322772808462E-33));
#601=CARTESIAN_POINT('',(0.0875,-0.05,0.));
#602=CARTESIAN_POINT('',(0.1175,-0.05,5.02322772808462E-33));
#603=CARTESIAN_POINT('',(0.1175,-0.05,0.02));
#604=CARTESIAN_POINT('',(0.1375,-0.05,0.02));
#605=CARTESIAN_POINT('',(0.0875,-0.05,0.02));
#606=CARTESIAN_POINT('',(0.0575,-3.46944695195361E-18,0.02));
#607=CARTESIAN_POINT('',(0.0575,0.05,0.02));
#608=CARTESIAN_POINT('',(0.0375,0.05,0.02));
#609=CARTESIAN_POINT('',(0.0575,0.05,1.4372611525278E-34));
#610=CARTESIAN_POINT('',(0.0575,-3.46944695195361E-18,0.));
#611=CARTESIAN_POINT('',(0.0375,-3.46944695195361E-18,0.02));
#612=CARTESIAN_POINT('',(0.1175,-2.77555756156289E-18,0.02));
#613=CARTESIAN_POINT('',(0.1175,0.05,0.02));
#614=CARTESIAN_POINT('',(0.1175,0.05,1.43726115252779E-34));
#615=CARTESIAN_POINT('',(0.1375,0.05,0.02));
#616=CARTESIAN_POINT('',(0.1375,1.54074395550979E-33,0.02));
#617=CARTESIAN_POINT('',(0.1175,-2.77555756156289E-18,0.));
#618=CARTESIAN_POINT('',(0.0875,0.05,0.02));
#619=CARTESIAN_POINT('',(0.0875,0.05,0.02));
#620=CARTESIAN_POINT('',(0.0875,0.05,0.));
#621=CARTESIAN_POINT('',(0.0375,0.,0.025));
#622=CARTESIAN_POINT('',(0.0375,-0.05,0.025));
#623=CARTESIAN_POINT('',(0.0375,-0.05,0.025));
#624=CARTESIAN_POINT('',(0.0375,0.,0.025));
#625=CARTESIAN_POINT('',(0.0375,0.05,0.025));
#626=CARTESIAN_POINT('',(0.0375,0.05,0.025));
#627=CARTESIAN_POINT('',(0.0875,-0.05,0.025));
#628=CARTESIAN_POINT('',(0.1375,-0.05,0.025));
#629=CARTESIAN_POINT('',(0.1375,-0.05,0.025));
#630=CARTESIAN_POINT('',(0.0875,-0.05,0.025));
#631=CARTESIAN_POINT('',(0.0875,-6.93889390390723E-18,0.));
#632=CARTESIAN_POINT('',(0.1375,0.,0.025));
#633=CARTESIAN_POINT('',(0.1375,0.05,0.025));
#634=CARTESIAN_POINT('',(0.1375,0.05,0.025));
#635=CARTESIAN_POINT('',(0.1375,1.38777878078145E-17,0.025));
#636=CARTESIAN_POINT('',(0.0875,0.05,0.025));
#637=CARTESIAN_POINT('',(0.0875,0.05,0.025));
#638=CARTESIAN_POINT('',(-0.0875,0.05,0.02));
#639=CARTESIAN_POINT('',(-0.0575,0.05,0.02));
#640=CARTESIAN_POINT('',(-0.0375,0.05,0.02));
#641=CARTESIAN_POINT('',(-0.0575,0.05,-5.02322772808462E-33));
#642=CARTESIAN_POINT('',(-0.0875,0.05,0.));
#643=CARTESIAN_POINT('',(-0.1175,0.05,5.02322772808462E-33));
#644=CARTESIAN_POINT('',(-0.1175,0.05,0.02));
#645=CARTESIAN_POINT('',(-0.1375,0.05,0.02));
#646=CARTESIAN_POINT('',(-0.0875,0.05,0.02));
#647=CARTESIAN_POINT('',(-0.0575,-3.46944695195361E-18,0.02));
#648=CARTESIAN_POINT('',(-0.0575,-0.05,0.02));
#649=CARTESIAN_POINT('',(-0.0375,-0.05,0.02));
#650=CARTESIAN_POINT('',(-0.0575,-0.05,-1.4372611525278E-34));
#651=CARTESIAN_POINT('',(-0.0575,-3.46944695195361E-18,0.));
#652=CARTESIAN_POINT('',(-0.0375,-3.46944695195361E-18,0.02));
#653=CARTESIAN_POINT('',(-0.1175,-2.77555756156289E-18,0.02));
#654=CARTESIAN_POINT('',(-0.1175,-0.05,0.02));
#655=CARTESIAN_POINT('',(-0.1175,-0.05,-1.43726115252779E-34));
#656=CARTESIAN_POINT('',(-0.1375,-0.05,0.02));
#657=CARTESIAN_POINT('',(-0.1375,1.54074395550979E-33,0.02));
#658=CARTESIAN_POINT('',(-0.1175,-2.77555756156289E-18,0.));
#659=CARTESIAN_POINT('',(-0.0875,-0.05,0.02));
#660=CARTESIAN_POINT('',(-0.0875,-0.05,0.02));
#661=CARTESIAN_POINT('',(-0.0875,-0.05,0.));
#662=CARTESIAN_POINT('',(-0.0375,0.,0.025));
#663=CARTESIAN_POINT('',(-0.0375,0.05,0.025));
#664=CARTESIAN_POINT('',(-0.0375,0.05,0.025));
#665=CARTESIAN_POINT('',(-0.0375,0.,0.025));
#666=CARTESIAN_POINT('',(-0.0375,-0.05,0.025));
#667=CARTESIAN_POINT('',(-0.0375,-0.05,0.025));
#668=CARTESIAN_POINT('',(-0.0875,0.05,0.025));
#669=CARTESIAN_POINT('',(-0.1375,0.05,0.025));
#670=CARTESIAN_POINT('',(-0.1375,0.05,0.025));
#671=CARTESIAN_POINT('',(-0.0875,0.05,0.025));
#672=CARTESIAN_POINT('',(-0.0875,-6.93889390390723E-18,0.));
#673=CARTESIAN_POINT('',(-0.1375,0.,0.025));
#674=CARTESIAN_POINT('',(-0.1375,-0.05,0.025));
#675=CARTESIAN_POINT('',(-0.1375,-0.05,0.025));
#676=CARTESIAN_POINT('',(-0.1375,9.54097911787244E-18,0.025));
#677=CARTESIAN_POINT('',(-0.0875,-0.05,0.025));
#678=CARTESIAN_POINT('',(-0.0875,-0.05,0.025));
#679=CARTESIAN_POINT('',(0.,0.,0.015));
#680=CARTESIAN_POINT('',(0.,0.,0.015));
#681=CARTESIAN_POINT('',(-0.25,0.,0.015));
#682=CARTESIAN_POINT('',(0.,0.,0.025));
#683=CARTESIAN_POINT('',(-0.24,-5.87830463590729E-17,0.025));
#684=CARTESIAN_POINT('',(0.,0.,0.));
#685=CARTESIAN_POINT('',(0.,0.,0.01));
#686=CARTESIAN_POINT('',(-0.25,0.,0.01));
#687=CARTESIAN_POINT('',(0.,0.,0.025));
#688=CARTESIAN_POINT('',(0.,0.,0.01));
#689=CARTESIAN_POINT('',(0.,0.,0.));
#690=CARTESIAN_POINT('',(-0.26,6.36816335556623E-17,0.));
#691=CARTESIAN_POINT('',(0.,0.,0.));
#692=CARTESIAN_POINT('',(0.,0.,0.));
#693=CARTESIAN_POINT('',(0.29,0.,0.));
#694=CARTESIAN_POINT('',(0.,0.,0.01));
#695=CARTESIAN_POINT('',(0.,0.,0.01));
#696=CARTESIAN_POINT('',(0.3,-7.34788079488412E-17,0.01));
#697=CARTESIAN_POINT('',(0.,0.,0.));
#698=CARTESIAN_POINT('',(0.,0.,0.49));
#699=CARTESIAN_POINT('',(0.3,7.34788079488412E-17,0.49));
#700=CARTESIAN_POINT('',(0.,0.,0.5));
#701=CARTESIAN_POINT('',(0.,0.,0.51));
#702=CARTESIAN_POINT('',(0.2875,0.,0.51));
#703=CARTESIAN_POINT('',(0.,0.,0.5));
#704=CARTESIAN_POINT('',(0.2875,0.,0.5));
#705=CARTESIAN_POINT('',(0.,0.,0.51));
#706=CARTESIAN_POINT('',(0.,0.,0.49));
#707=CARTESIAN_POINT('',(0.,0.,0.5));
#708=CARTESIAN_POINT('',(0.29,0.,0.5));
#709=CARTESIAN_POINT('',(0.,0.,0.5));
#710=TOROIDAL_SURFACE('',#418,0.03,0.02);
#711=TOROIDAL_SURFACE('',#427,0.03,0.02);
#712=TOROIDAL_SURFACE('',#437,0.03,0.02);
#713=TOROIDAL_SURFACE('',#446,0.03,0.02);
#714=TOROIDAL_SURFACE('',#456,0.24,0.01);
#715=TOROIDAL_SURFACE('',#462,0.26,0.01);
#716=TOROIDAL_SURFACE('',#466,0.29,0.01);
#717=TOROIDAL_SURFACE('',#474,0.29,0.01);
#718=CLOSED_SHELL('',(#389,#390,#391,#392,#393,#394,#395,#396,#397,#398,
#399,#400,#401,#402,#403,#404,#405,#406,#407,#408,#409,#410,#411,#412,#413,
#414,#415,#416,#417));
#719=MANIFOLD_SOLID_BREP('',#718);
#720=ADVANCED_BREP_SHAPE_REPRESENTATION('',(#719),#33);
ENDSEC;
END-ISO-10303-21;
