ISO-10303-21;
HEADER;
/* Generated by software containing ST-Developer
 * from STEP Tools, Inc. (www.steptools.com) 
 */

FILE_DESCRIPTION(
/* description */ ('Alibre Inc.'),
/* implementation_level */ '2;1');

FILE_NAME(
/* name */ 'export0',
/* time_stamp */ '2018-08-14T07:07:59-05:00',
/* author */ (''),
/* organization */ (''),
/* preprocessor_version */ 'ST-DEVELOPER v17',
/* originating_system */ 'Alibre',
/* authorisation */ '');

FILE_SCHEMA (('CONFIG_CONTROL_DESIGN'));
ENDSEC;

DATA;
#10=MECHANICAL_CONTEXT('detailed design',#18,'mechanical');
#11=PRODUCT_RELATED_PRODUCT_CATEGORY('detail','',(#98));
#12=CC_DESIGN_SECURITY_CLASSIFICATION(#14,(#97));
#13=SECURITY_CLASSIFICATION_LEVEL('unclassified');
#14=SECURITY_CLASSIFICATION('name','Security for version',#13);
#15=SHAPE_DEFINITION_REPRESENTATION(#16,#473);
#16=PRODUCT_DEFINITION_SHAPE('','DefinitionDesc',#96);
#17=APPLICATION_PROTOCOL_DEFINITION('AP definition status',
'config_control_design',1994,#18);
#18=APPLICATION_CONTEXT(
'control the configuration of three dimensional design');
#19=DESIGN_CONTEXT('detailed design',#18,'design');
#20=PERSON_AND_ORGANIZATION_ROLE('creator');
#21=PERSON_AND_ORGANIZATION_ROLE('classification_officer');
#22=PERSON_AND_ORGANIZATION_ROLE('creator');
#23=PERSON_AND_ORGANIZATION_ROLE('design_supplier');
#24=PERSON_AND_ORGANIZATION_ROLE('design_owner');
#25=CC_DESIGN_PERSON_AND_ORGANIZATION_ASSIGNMENT(#57,#20,(#96));
#26=CC_DESIGN_PERSON_AND_ORGANIZATION_ASSIGNMENT(#60,#21,(#14));
#27=CC_DESIGN_PERSON_AND_ORGANIZATION_ASSIGNMENT(#61,#22,(#97));
#28=CC_DESIGN_PERSON_AND_ORGANIZATION_ASSIGNMENT(#62,#23,(#97));
#29=CC_DESIGN_PERSON_AND_ORGANIZATION_ASSIGNMENT(#63,#24,(#98));
#30=DATE_TIME_ROLE('creation_date');
#31=DATE_TIME_ROLE('classification_date');
#32=CC_DESIGN_DATE_AND_TIME_ASSIGNMENT(#86,#30,(#96));
#33=CC_DESIGN_DATE_AND_TIME_ASSIGNMENT(#89,#31,(#14));
#34=CC_DESIGN_APPROVAL(#93,(#96));
#35=CC_DESIGN_APPROVAL(#94,(#97));
#36=CC_DESIGN_APPROVAL(#95,(#14));
#37=APPROVAL_PERSON_ORGANIZATION(#56,#93,#64);
#38=APPROVAL_PERSON_ORGANIZATION(#58,#94,#65);
#39=APPROVAL_PERSON_ORGANIZATION(#59,#95,#66);
#40=ORGANIZATION('DEFINITION_APPROVEDBY_ORG_ID',
'DEFINITION_APPROVEDBY_ORG_NAME','DEFINITION_APPROVEDBY_ORG_DESCR');
#41=ORGANIZATION('DEF_CREATOR_ORG_ID','DEF_CREATOR_ORG_NAME',
'DEF_CREATOR_ORG_DESCR');
#42=ORGANIZATION('APPROVEDBY_ORG_ID','APPROVEDBY_ORG_NAME',
'APPROVEDBY_ORG_DESCR');
#43=ORGANIZATION('SECURITY_APPROVEDBY_ORG_ID',
'SECURITY_APPROVEDBY_ORG_NAME','SECURITY_APPROVEDBY_ORG_DESCR');
#44=ORGANIZATION('CLASSOFFICER_ORG_ID','CLASSOFFICER_ORG_NAME',
'CLASSOFFICER_ORG_DESCR');
#45=ORGANIZATION('CREATOR_ORG_ID','CREATOR_ORG_NAME',
'CREATOR_ORG_DESCR');
#46=ORGANIZATION('SUPPLIER_ORG_ID','SUPPLIER_ORG_NAME',
'SUPPLIER_ORG_DESCR');
#47=ORGANIZATION('OWNER_ORG_ID','OWNER_ORG_NAME','OWNER_ORG_DESCR');
#48=PERSON('DEFINITION_approverID','DEFINITION_APPROVEDBY_LASTNAME',
'DEFINITION_APPROVEDBY_FIRSTNAME',$,$,$);
#49=PERSON('DEF_createrID','DEF_CREATOR_LASTNAME',
'DEF_CREATOR_FIRSTNAME',$,$,$);
#50=PERSON('approverID','APPROVEDBY_LASTNAME','APPROVEDBY_FIRSTNAME',$,
$,$);
#51=PERSON('SECURITY_approverID','SECURITY_LASTNAME',
'SECURITY_APPROVEDBY_FIRSTNAME',$,$,$);
#52=PERSON('classifierID','CLASSOFFICER_LASTNAME',
'CLASSOFFICER_FIRSTNAME',$,$,$);
#53=PERSON('createrID','CREATOR_LASTNAME','CREATOR_FIRSTNAME',$,$,$);
#54=PERSON('supplierID','SUPPLIER_LASTNAME','SUPPLIER_FIRSTNAME',$,$,$);
#55=PERSON('ownerID','OWNER_LASTNAME','OWNER_FIRSTNAME',$,$,$);
#56=PERSON_AND_ORGANIZATION(#48,#40);
#57=PERSON_AND_ORGANIZATION(#49,#41);
#58=PERSON_AND_ORGANIZATION(#50,#42);
#59=PERSON_AND_ORGANIZATION(#51,#43);
#60=PERSON_AND_ORGANIZATION(#52,#44);
#61=PERSON_AND_ORGANIZATION(#53,#45);
#62=PERSON_AND_ORGANIZATION(#54,#46);
#63=PERSON_AND_ORGANIZATION(#55,#47);
#64=APPROVAL_ROLE('definition_approval');
#65=APPROVAL_ROLE('version_approval');
#66=APPROVAL_ROLE('security_approval');
#67=APPROVAL_DATE_TIME(#85,#93);
#68=APPROVAL_DATE_TIME(#87,#94);
#69=APPROVAL_DATE_TIME(#88,#95);
#70=COORDINATED_UNIVERSAL_TIME_OFFSET(5,0,.BEHIND.);
#71=COORDINATED_UNIVERSAL_TIME_OFFSET(5,0,.BEHIND.);
#72=COORDINATED_UNIVERSAL_TIME_OFFSET(5,0,.BEHIND.);
#73=COORDINATED_UNIVERSAL_TIME_OFFSET(5,0,.BEHIND.);
#74=COORDINATED_UNIVERSAL_TIME_OFFSET(5,0,.BEHIND.);
#75=LOCAL_TIME(6,59,15.,#70);
#76=LOCAL_TIME(6,59,15.,#71);
#77=LOCAL_TIME(6,59,15.,#72);
#78=LOCAL_TIME(6,59,15.,#73);
#79=LOCAL_TIME(6,59,15.,#74);
#80=CALENDAR_DATE(2018,14,8);
#81=CALENDAR_DATE(2018,14,8);
#82=CALENDAR_DATE(2018,14,8);
#83=CALENDAR_DATE(2018,14,8);
#84=CALENDAR_DATE(2018,14,8);
#85=DATE_AND_TIME(#80,#75);
#86=DATE_AND_TIME(#81,#76);
#87=DATE_AND_TIME(#82,#77);
#88=DATE_AND_TIME(#83,#78);
#89=DATE_AND_TIME(#84,#79);
#90=APPROVAL_STATUS('not_yet_approved');
#91=APPROVAL_STATUS('not_yet_approved');
#92=APPROVAL_STATUS('not_yet_approved');
#93=APPROVAL(#90,'defintion approval');
#94=APPROVAL(#91,'version approval');
#95=APPROVAL(#92,'security approval');
#96=PRODUCT_DEFINITION('DefinitionID','DefinitionDesc',#97,#19);
#97=PRODUCT_DEFINITION_FORMATION_WITH_SPECIFIED_SOURCE(
'PRODUCT_VERSION_ID','PRODUCT_VERSION_DESCR',#98,.NOT_KNOWN.);
#98=PRODUCT('ID_1','PB-2416-2','',(#10));
#99=(
LENGTH_UNIT()
NAMED_UNIT(*)
SI_UNIT(.CENTI.,.METRE.)
);
#100=(
NAMED_UNIT(*)
PLANE_ANGLE_UNIT()
SI_UNIT($,.RADIAN.)
);
#101=(
NAMED_UNIT(*)
SI_UNIT($,.STERADIAN.)
SOLID_ANGLE_UNIT()
);
#102=UNCERTAINTY_MEASURE_WITH_UNIT(LENGTH_MEASURE(1.E-6),#99,
'DISTANCE_ACCURACY_VALUE',
'Maximum model space distance between geometric entities at asserted c
onnectivities');
#103=(
GEOMETRIC_REPRESENTATION_CONTEXT(3)
GLOBAL_UNCERTAINTY_ASSIGNED_CONTEXT((#102))
GLOBAL_UNIT_ASSIGNED_CONTEXT((#101,#100,#99))
REPRESENTATION_CONTEXT('ID1','3D')
);
#104=TOROIDAL_SURFACE('',#314,1.125,0.05);
#105=PLANE('',#307);
#106=PLANE('',#311);
#107=PLANE('',#312);
#108=PLANE('',#319);
#109=PLANE('',#326);
#110=PLANE('',#333);
#111=PLANE('',#337);
#112=PLANE('',#340);
#113=VERTEX_POINT('',#408);
#114=VERTEX_POINT('',#410);
#115=VERTEX_POINT('',#414);
#116=VERTEX_POINT('',#416);
#117=VERTEX_POINT('',#420);
#118=VERTEX_POINT('',#423);
#119=VERTEX_POINT('',#425);
#120=VERTEX_POINT('',#428);
#121=VERTEX_POINT('',#431);
#122=VERTEX_POINT('',#434);
#123=VERTEX_POINT('',#437);
#124=VERTEX_POINT('',#439);
#125=VERTEX_POINT('',#442);
#126=VERTEX_POINT('',#445);
#127=VERTEX_POINT('',#448);
#128=VERTEX_POINT('',#450);
#129=VERTEX_POINT('',#453);
#130=VERTEX_POINT('',#456);
#131=VERTEX_POINT('',#460);
#132=CIRCLE('',#305,0.04);
#133=CIRCLE('',#306,0.04);
#134=CIRCLE('',#309,0.04);
#135=CIRCLE('',#310,0.04);
#136=CIRCLE('',#313,1.1);
#137=CIRCLE('',#315,1.125);
#138=CIRCLE('',#316,1.175);
#139=CIRCLE('',#318,1.175);
#140=CIRCLE('',#320,0.9375);
#141=CIRCLE('',#322,0.9375);
#142=CIRCLE('',#324,0.8375);
#143=CIRCLE('',#325,0.8375);
#144=CIRCLE('',#327,0.6125);
#145=CIRCLE('',#329,0.6125);
#146=CIRCLE('',#331,0.5375);
#147=CIRCLE('',#332,0.5375);
#148=CIRCLE('',#334,0.2875);
#149=CIRCLE('',#336,0.2875);
#150=CIRCLE('',#339,1.1);
#151=EDGE_CURVE('',#113,#113,#132,.T.);
#152=EDGE_CURVE('',#114,#114,#133,.T.);
#153=EDGE_CURVE('',#115,#115,#134,.T.);
#154=EDGE_CURVE('',#116,#116,#135,.T.);
#155=EDGE_CURVE('',#117,#117,#136,.T.);
#156=EDGE_CURVE('',#118,#118,#137,.T.);
#157=EDGE_CURVE('',#119,#119,#138,.T.);
#158=EDGE_CURVE('',#120,#120,#139,.T.);
#159=EDGE_CURVE('',#121,#121,#140,.T.);
#160=EDGE_CURVE('',#122,#122,#141,.T.);
#161=EDGE_CURVE('',#123,#123,#142,.T.);
#162=EDGE_CURVE('',#124,#124,#143,.T.);
#163=EDGE_CURVE('',#125,#125,#144,.T.);
#164=EDGE_CURVE('',#126,#126,#145,.T.);
#165=EDGE_CURVE('',#127,#127,#146,.T.);
#166=EDGE_CURVE('',#128,#128,#147,.T.);
#167=EDGE_CURVE('',#129,#129,#148,.T.);
#168=EDGE_CURVE('',#130,#130,#149,.T.);
#169=EDGE_CURVE('',#131,#131,#150,.T.);
#170=ORIENTED_EDGE('',*,*,#151,.T.);
#171=ORIENTED_EDGE('',*,*,#152,.F.);
#172=ORIENTED_EDGE('',*,*,#151,.F.);
#173=ORIENTED_EDGE('',*,*,#153,.T.);
#174=ORIENTED_EDGE('',*,*,#154,.F.);
#175=ORIENTED_EDGE('',*,*,#153,.F.);
#176=ORIENTED_EDGE('',*,*,#155,.T.);
#177=ORIENTED_EDGE('',*,*,#154,.T.);
#178=ORIENTED_EDGE('',*,*,#152,.T.);
#179=ORIENTED_EDGE('',*,*,#156,.T.);
#180=ORIENTED_EDGE('',*,*,#157,.T.);
#181=ORIENTED_EDGE('',*,*,#158,.T.);
#182=ORIENTED_EDGE('',*,*,#157,.F.);
#183=ORIENTED_EDGE('',*,*,#159,.T.);
#184=ORIENTED_EDGE('',*,*,#156,.F.);
#185=ORIENTED_EDGE('',*,*,#160,.F.);
#186=ORIENTED_EDGE('',*,*,#159,.F.);
#187=ORIENTED_EDGE('',*,*,#161,.F.);
#188=ORIENTED_EDGE('',*,*,#162,.F.);
#189=ORIENTED_EDGE('',*,*,#161,.T.);
#190=ORIENTED_EDGE('',*,*,#160,.T.);
#191=ORIENTED_EDGE('',*,*,#162,.T.);
#192=ORIENTED_EDGE('',*,*,#163,.T.);
#193=ORIENTED_EDGE('',*,*,#164,.F.);
#194=ORIENTED_EDGE('',*,*,#163,.F.);
#195=ORIENTED_EDGE('',*,*,#165,.F.);
#196=ORIENTED_EDGE('',*,*,#166,.F.);
#197=ORIENTED_EDGE('',*,*,#165,.T.);
#198=ORIENTED_EDGE('',*,*,#164,.T.);
#199=ORIENTED_EDGE('',*,*,#166,.T.);
#200=ORIENTED_EDGE('',*,*,#167,.T.);
#201=ORIENTED_EDGE('',*,*,#168,.F.);
#202=ORIENTED_EDGE('',*,*,#167,.F.);
#203=ORIENTED_EDGE('',*,*,#168,.T.);
#204=ORIENTED_EDGE('',*,*,#155,.F.);
#205=ORIENTED_EDGE('',*,*,#169,.F.);
#206=ORIENTED_EDGE('',*,*,#169,.T.);
#207=ORIENTED_EDGE('',*,*,#158,.F.);
#208=EDGE_LOOP('',(#170));
#209=EDGE_LOOP('',(#171));
#210=EDGE_LOOP('',(#172));
#211=EDGE_LOOP('',(#173));
#212=EDGE_LOOP('',(#174));
#213=EDGE_LOOP('',(#175));
#214=EDGE_LOOP('',(#176));
#215=EDGE_LOOP('',(#177));
#216=EDGE_LOOP('',(#178));
#217=EDGE_LOOP('',(#179));
#218=EDGE_LOOP('',(#180));
#219=EDGE_LOOP('',(#181));
#220=EDGE_LOOP('',(#182));
#221=EDGE_LOOP('',(#183));
#222=EDGE_LOOP('',(#184));
#223=EDGE_LOOP('',(#185));
#224=EDGE_LOOP('',(#186));
#225=EDGE_LOOP('',(#187));
#226=EDGE_LOOP('',(#188));
#227=EDGE_LOOP('',(#189));
#228=EDGE_LOOP('',(#190));
#229=EDGE_LOOP('',(#191));
#230=EDGE_LOOP('',(#192));
#231=EDGE_LOOP('',(#193));
#232=EDGE_LOOP('',(#194));
#233=EDGE_LOOP('',(#195));
#234=EDGE_LOOP('',(#196));
#235=EDGE_LOOP('',(#197));
#236=EDGE_LOOP('',(#198));
#237=EDGE_LOOP('',(#199));
#238=EDGE_LOOP('',(#200));
#239=EDGE_LOOP('',(#201));
#240=EDGE_LOOP('',(#202));
#241=EDGE_LOOP('',(#203));
#242=EDGE_LOOP('',(#204));
#243=EDGE_LOOP('',(#205));
#244=EDGE_LOOP('',(#206));
#245=EDGE_LOOP('',(#207));
#246=FACE_BOUND('',#208,.T.);
#247=FACE_BOUND('',#209,.T.);
#248=FACE_BOUND('',#210,.T.);
#249=FACE_BOUND('',#211,.T.);
#250=FACE_BOUND('',#212,.T.);
#251=FACE_BOUND('',#213,.T.);
#252=FACE_BOUND('',#214,.T.);
#253=FACE_BOUND('',#215,.T.);
#254=FACE_BOUND('',#216,.T.);
#255=FACE_BOUND('',#217,.T.);
#256=FACE_BOUND('',#218,.T.);
#257=FACE_BOUND('',#219,.T.);
#258=FACE_BOUND('',#220,.T.);
#259=FACE_BOUND('',#221,.T.);
#260=FACE_BOUND('',#222,.T.);
#261=FACE_BOUND('',#223,.T.);
#262=FACE_BOUND('',#224,.T.);
#263=FACE_BOUND('',#225,.T.);
#264=FACE_BOUND('',#226,.T.);
#265=FACE_BOUND('',#227,.T.);
#266=FACE_BOUND('',#228,.T.);
#267=FACE_BOUND('',#229,.T.);
#268=FACE_BOUND('',#230,.T.);
#269=FACE_BOUND('',#231,.T.);
#270=FACE_BOUND('',#232,.T.);
#271=FACE_BOUND('',#233,.T.);
#272=FACE_BOUND('',#234,.T.);
#273=FACE_BOUND('',#235,.T.);
#274=FACE_BOUND('',#236,.T.);
#275=FACE_BOUND('',#237,.T.);
#276=FACE_BOUND('',#238,.T.);
#277=FACE_BOUND('',#239,.T.);
#278=FACE_BOUND('',#240,.T.);
#279=FACE_BOUND('',#241,.T.);
#280=FACE_BOUND('',#242,.T.);
#281=FACE_BOUND('',#243,.T.);
#282=FACE_BOUND('',#244,.T.);
#283=FACE_BOUND('',#245,.T.);
#284=ADVANCED_FACE('',(#246,#247),#462,.T.);
#285=ADVANCED_FACE('',(#248),#105,.T.);
#286=ADVANCED_FACE('',(#249,#250),#463,.T.);
#287=ADVANCED_FACE('',(#251),#106,.T.);
#288=ADVANCED_FACE('',(#252,#253,#254),#107,.T.);
#289=ADVANCED_FACE('',(#255,#256),#104,.T.);
#290=ADVANCED_FACE('',(#257,#258),#464,.T.);
#291=ADVANCED_FACE('',(#259,#260),#108,.F.);
#292=ADVANCED_FACE('',(#261,#262),#465,.F.);
#293=ADVANCED_FACE('',(#263,#264),#466,.T.);
#294=ADVANCED_FACE('',(#265,#266),#109,.T.);
#295=ADVANCED_FACE('',(#267,#268),#108,.F.);
#296=ADVANCED_FACE('',(#269,#270),#467,.F.);
#297=ADVANCED_FACE('',(#271,#272),#468,.T.);
#298=ADVANCED_FACE('',(#273,#274),#110,.T.);
#299=ADVANCED_FACE('',(#275,#276),#108,.F.);
#300=ADVANCED_FACE('',(#277,#278),#469,.F.);
#301=ADVANCED_FACE('',(#279),#111,.T.);
#302=ADVANCED_FACE('',(#280,#281),#470,.F.);
#303=ADVANCED_FACE('',(#282,#283),#112,.T.);
#304=AXIS2_PLACEMENT_3D('',#406,#341,#342);
#305=AXIS2_PLACEMENT_3D('',#407,#343,#344);
#306=AXIS2_PLACEMENT_3D('',#409,#345,#346);
#307=AXIS2_PLACEMENT_3D('',#411,#347,$);
#308=AXIS2_PLACEMENT_3D('',#412,#348,#349);
#309=AXIS2_PLACEMENT_3D('',#413,#350,#351);
#310=AXIS2_PLACEMENT_3D('',#415,#352,#353);
#311=AXIS2_PLACEMENT_3D('',#417,#354,$);
#312=AXIS2_PLACEMENT_3D('',#418,#355,$);
#313=AXIS2_PLACEMENT_3D('',#419,#356,#357);
#314=AXIS2_PLACEMENT_3D('',#421,#358,$);
#315=AXIS2_PLACEMENT_3D('',#422,#359,#360);
#316=AXIS2_PLACEMENT_3D('',#424,#361,#362);
#317=AXIS2_PLACEMENT_3D('',#426,#363,#364);
#318=AXIS2_PLACEMENT_3D('',#427,#365,#366);
#319=AXIS2_PLACEMENT_3D('',#429,#367,$);
#320=AXIS2_PLACEMENT_3D('',#430,#368,#369);
#321=AXIS2_PLACEMENT_3D('',#432,#370,#371);
#322=AXIS2_PLACEMENT_3D('',#433,#372,#373);
#323=AXIS2_PLACEMENT_3D('',#435,#374,#375);
#324=AXIS2_PLACEMENT_3D('',#436,#376,#377);
#325=AXIS2_PLACEMENT_3D('',#438,#378,#379);
#326=AXIS2_PLACEMENT_3D('',#440,#380,$);
#327=AXIS2_PLACEMENT_3D('',#441,#381,#382);
#328=AXIS2_PLACEMENT_3D('',#443,#383,#384);
#329=AXIS2_PLACEMENT_3D('',#444,#385,#386);
#330=AXIS2_PLACEMENT_3D('',#446,#387,#388);
#331=AXIS2_PLACEMENT_3D('',#447,#389,#390);
#332=AXIS2_PLACEMENT_3D('',#449,#391,#392);
#333=AXIS2_PLACEMENT_3D('',#451,#393,$);
#334=AXIS2_PLACEMENT_3D('',#452,#394,#395);
#335=AXIS2_PLACEMENT_3D('',#454,#396,#397);
#336=AXIS2_PLACEMENT_3D('',#455,#398,#399);
#337=AXIS2_PLACEMENT_3D('',#457,#400,$);
#338=AXIS2_PLACEMENT_3D('',#458,#401,#402);
#339=AXIS2_PLACEMENT_3D('',#459,#403,#404);
#340=AXIS2_PLACEMENT_3D('',#461,#405,$);
#341=DIRECTION('',(0.,0.,1.));
#342=DIRECTION('',(0.04,0.,0.));
#343=DIRECTION('',(0.,0.,-1.));
#344=DIRECTION('',(0.04,0.,0.));
#345=DIRECTION('',(0.,0.,-1.));
#346=DIRECTION('',(0.04,0.,0.));
#347=DIRECTION('',(0.,0.,1.));
#348=DIRECTION('',(0.,0.,1.));
#349=DIRECTION('',(0.04,0.,0.));
#350=DIRECTION('',(0.,0.,-1.));
#351=DIRECTION('',(0.04,0.,0.));
#352=DIRECTION('',(0.,0.,-1.));
#353=DIRECTION('',(0.04,0.,0.));
#354=DIRECTION('',(0.,0.,1.));
#355=DIRECTION('',(0.,0.,1.));
#356=DIRECTION('',(0.,0.,1.));
#357=DIRECTION('',(1.1,0.,0.));
#358=DIRECTION('',(0.,0.,1.));
#359=DIRECTION('',(0.,0.,1.));
#360=DIRECTION('',(-1.125,1.37772764904077E-16,0.));
#361=DIRECTION('',(0.,0.,-1.));
#362=DIRECTION('',(-1.175,1.43895998899814E-16,0.));
#363=DIRECTION('',(0.,0.,1.));
#364=DIRECTION('',(1.175,0.,0.));
#365=DIRECTION('',(0.,0.,-1.));
#366=DIRECTION('',(1.175,0.,0.));
#367=DIRECTION('',(0.,0.,1.));
#368=DIRECTION('',(0.,0.,1.));
#369=DIRECTION('',(-0.9375,0.,0.));
#370=DIRECTION('',(0.,0.,1.));
#371=DIRECTION('',(-0.9375,0.,0.));
#372=DIRECTION('',(0.,0.,-1.));
#373=DIRECTION('',(-0.9375,0.,0.));
#374=DIRECTION('',(0.,0.,1.));
#375=DIRECTION('',(-0.8375,0.,0.));
#376=DIRECTION('',(0.,0.,1.));
#377=DIRECTION('',(-0.8375,0.,0.));
#378=DIRECTION('',(0.,0.,-1.));
#379=DIRECTION('',(-0.8375,0.,0.));
#380=DIRECTION('',(0.,0.,-1.));
#381=DIRECTION('',(0.,0.,1.));
#382=DIRECTION('',(-0.6125,0.,0.));
#383=DIRECTION('',(0.,0.,1.));
#384=DIRECTION('',(-0.6125,0.,0.));
#385=DIRECTION('',(0.,0.,-1.));
#386=DIRECTION('',(-0.6125,0.,0.));
#387=DIRECTION('',(0.,0.,1.));
#388=DIRECTION('',(-0.5375,0.,0.));
#389=DIRECTION('',(0.,0.,1.));
#390=DIRECTION('',(-0.5375,0.,0.));
#391=DIRECTION('',(0.,0.,-1.));
#392=DIRECTION('',(-0.5375,0.,0.));
#393=DIRECTION('',(0.,0.,-1.));
#394=DIRECTION('',(0.,0.,1.));
#395=DIRECTION('',(-0.2875,0.,0.));
#396=DIRECTION('',(0.,0.,1.));
#397=DIRECTION('',(-0.2875,0.,0.));
#398=DIRECTION('',(0.,0.,-1.));
#399=DIRECTION('',(-0.2875,0.,0.));
#400=DIRECTION('',(0.,0.,-1.));
#401=DIRECTION('',(0.,0.,-1.));
#402=DIRECTION('',(1.1,0.,0.));
#403=DIRECTION('',(0.,0.,-1.));
#404=DIRECTION('',(1.1,0.,0.));
#405=DIRECTION('',(0.,0.,1.));
#406=CARTESIAN_POINT('',(0.75,0.,1.5));
#407=CARTESIAN_POINT('',(0.75,0.,2.2));
#408=CARTESIAN_POINT('',(0.79,0.,2.2));
#409=CARTESIAN_POINT('',(0.75,0.,1.5));
#410=CARTESIAN_POINT('',(0.79,0.,1.5));
#411=CARTESIAN_POINT('',(0.75,0.,2.2));
#412=CARTESIAN_POINT('',(-0.75,0.,1.5));
#413=CARTESIAN_POINT('',(-0.75,0.,2.2));
#414=CARTESIAN_POINT('',(-0.71,0.,2.2));
#415=CARTESIAN_POINT('',(-0.75,0.,1.5));
#416=CARTESIAN_POINT('',(-0.71,0.,1.5));
#417=CARTESIAN_POINT('',(-0.75,0.,2.2));
#418=CARTESIAN_POINT('',(0.,0.,1.5));
#419=CARTESIAN_POINT('',(0.,0.,1.5));
#420=CARTESIAN_POINT('',(1.1,0.,1.5));
#421=CARTESIAN_POINT('',(0.,0.,0.05));
#422=CARTESIAN_POINT('',(0.,0.,0.));
#423=CARTESIAN_POINT('',(1.125,0.,0.));
#424=CARTESIAN_POINT('',(0.,0.,0.05));
#425=CARTESIAN_POINT('',(1.175,-2.87791997799628E-16,0.05));
#426=CARTESIAN_POINT('',(0.,0.,0.));
#427=CARTESIAN_POINT('',(0.,0.,1.6));
#428=CARTESIAN_POINT('',(1.175,0.,1.6));
#429=CARTESIAN_POINT('',(0.,0.,0.));
#430=CARTESIAN_POINT('',(0.,0.,0.));
#431=CARTESIAN_POINT('',(-0.9375,0.,0.));
#432=CARTESIAN_POINT('',(0.,0.,0.));
#433=CARTESIAN_POINT('',(0.,0.,0.025));
#434=CARTESIAN_POINT('',(-0.9375,0.,0.025));
#435=CARTESIAN_POINT('',(0.,0.,0.));
#436=CARTESIAN_POINT('',(0.,0.,0.025));
#437=CARTESIAN_POINT('',(-0.8375,0.,0.025));
#438=CARTESIAN_POINT('',(0.,0.,0.));
#439=CARTESIAN_POINT('',(-0.8375,0.,0.));
#440=CARTESIAN_POINT('',(0.,0.,0.025));
#441=CARTESIAN_POINT('',(0.,0.,0.));
#442=CARTESIAN_POINT('',(-0.6125,0.,0.));
#443=CARTESIAN_POINT('',(0.,0.,0.));
#444=CARTESIAN_POINT('',(0.,0.,0.025));
#445=CARTESIAN_POINT('',(-0.6125,0.,0.025));
#446=CARTESIAN_POINT('',(0.,0.,0.));
#447=CARTESIAN_POINT('',(0.,0.,0.025));
#448=CARTESIAN_POINT('',(-0.5375,0.,0.025));
#449=CARTESIAN_POINT('',(0.,0.,0.));
#450=CARTESIAN_POINT('',(-0.5375,0.,0.));
#451=CARTESIAN_POINT('',(0.,0.,0.025));
#452=CARTESIAN_POINT('',(0.,0.,0.));
#453=CARTESIAN_POINT('',(-0.2875,0.,0.));
#454=CARTESIAN_POINT('',(0.,0.,0.));
#455=CARTESIAN_POINT('',(0.,0.,0.5));
#456=CARTESIAN_POINT('',(-0.2875,0.,0.5));
#457=CARTESIAN_POINT('',(0.,0.,0.5));
#458=CARTESIAN_POINT('',(0.,0.,1.6));
#459=CARTESIAN_POINT('',(0.,0.,1.6));
#460=CARTESIAN_POINT('',(1.1,0.,1.6));
#461=CARTESIAN_POINT('',(0.,0.,1.6));
#462=CYLINDRICAL_SURFACE('',#304,0.04);
#463=CYLINDRICAL_SURFACE('',#308,0.04);
#464=CYLINDRICAL_SURFACE('',#317,1.175);
#465=CYLINDRICAL_SURFACE('',#321,0.9375);
#466=CYLINDRICAL_SURFACE('',#323,0.8375);
#467=CYLINDRICAL_SURFACE('',#328,0.6125);
#468=CYLINDRICAL_SURFACE('',#330,0.5375);
#469=CYLINDRICAL_SURFACE('',#335,0.2875);
#470=CYLINDRICAL_SURFACE('',#338,1.1);
#471=CLOSED_SHELL('',(#284,#285,#286,#287,#288,#289,#290,#291,#292,#293,
#294,#295,#296,#297,#298,#299,#300,#301,#302,#303));
#472=MANIFOLD_SOLID_BREP('',#471);
#473=ADVANCED_BREP_SHAPE_REPRESENTATION('',(#472),#103);
ENDSEC;
END-ISO-10303-21;
