ISO-10303-21;
HEADER;
/* Generated by software containing ST-Developer
 * from STEP Tools, Inc. (www.steptools.com) 
 */

FILE_DESCRIPTION(
/* description */ ('Alibre Inc.'),
/* implementation_level */ '2;1');

FILE_NAME(
/* name */ 'export0',
/* time_stamp */ '2018-08-04T10:01:50-05:00',
/* author */ (''),
/* organization */ (''),
/* preprocessor_version */ 'ST-DEVELOPER v17',
/* originating_system */ 'Alibre',
/* authorisation */ '');

FILE_SCHEMA (('CONFIG_CONTROL_DESIGN'));
ENDSEC;

DATA;
#10=MECHANICAL_CONTEXT('detailed design',#18,'mechanical');
#11=PRODUCT_RELATED_PRODUCT_CATEGORY('detail','',(#98));
#12=CC_DESIGN_SECURITY_CLASSIFICATION(#14,(#97));
#13=SECURITY_CLASSIFICATION_LEVEL('unclassified');
#14=SECURITY_CLASSIFICATION('name','Security for version',#13);
#15=SHAPE_DEFINITION_REPRESENTATION(#16,#325);
#16=PRODUCT_DEFINITION_SHAPE('','DefinitionDesc',#96);
#17=APPLICATION_PROTOCOL_DEFINITION('AP definition status',
'config_control_design',1994,#18);
#18=APPLICATION_CONTEXT(
'control the configuration of three dimensional design');
#19=DESIGN_CONTEXT('detailed design',#18,'design');
#20=PERSON_AND_ORGANIZATION_ROLE('creator');
#21=PERSON_AND_ORGANIZATION_ROLE('classification_officer');
#22=PERSON_AND_ORGANIZATION_ROLE('creator');
#23=PERSON_AND_ORGANIZATION_ROLE('design_supplier');
#24=PERSON_AND_ORGANIZATION_ROLE('design_owner');
#25=CC_DESIGN_PERSON_AND_ORGANIZATION_ASSIGNMENT(#57,#20,(#96));
#26=CC_DESIGN_PERSON_AND_ORGANIZATION_ASSIGNMENT(#60,#21,(#14));
#27=CC_DESIGN_PERSON_AND_ORGANIZATION_ASSIGNMENT(#61,#22,(#97));
#28=CC_DESIGN_PERSON_AND_ORGANIZATION_ASSIGNMENT(#62,#23,(#97));
#29=CC_DESIGN_PERSON_AND_ORGANIZATION_ASSIGNMENT(#63,#24,(#98));
#30=DATE_TIME_ROLE('creation_date');
#31=DATE_TIME_ROLE('classification_date');
#32=CC_DESIGN_DATE_AND_TIME_ASSIGNMENT(#86,#30,(#96));
#33=CC_DESIGN_DATE_AND_TIME_ASSIGNMENT(#89,#31,(#14));
#34=CC_DESIGN_APPROVAL(#93,(#96));
#35=CC_DESIGN_APPROVAL(#94,(#97));
#36=CC_DESIGN_APPROVAL(#95,(#14));
#37=APPROVAL_PERSON_ORGANIZATION(#56,#93,#64);
#38=APPROVAL_PERSON_ORGANIZATION(#58,#94,#65);
#39=APPROVAL_PERSON_ORGANIZATION(#59,#95,#66);
#40=ORGANIZATION('DEFINITION_APPROVEDBY_ORG_ID',
'DEFINITION_APPROVEDBY_ORG_NAME','DEFINITION_APPROVEDBY_ORG_DESCR');
#41=ORGANIZATION('DEF_CREATOR_ORG_ID','DEF_CREATOR_ORG_NAME',
'DEF_CREATOR_ORG_DESCR');
#42=ORGANIZATION('APPROVEDBY_ORG_ID','APPROVEDBY_ORG_NAME',
'APPROVEDBY_ORG_DESCR');
#43=ORGANIZATION('SECURITY_APPROVEDBY_ORG_ID',
'SECURITY_APPROVEDBY_ORG_NAME','SECURITY_APPROVEDBY_ORG_DESCR');
#44=ORGANIZATION('CLASSOFFICER_ORG_ID','CLASSOFFICER_ORG_NAME',
'CLASSOFFICER_ORG_DESCR');
#45=ORGANIZATION('CREATOR_ORG_ID','CREATOR_ORG_NAME',
'CREATOR_ORG_DESCR');
#46=ORGANIZATION('SUPPLIER_ORG_ID','SUPPLIER_ORG_NAME',
'SUPPLIER_ORG_DESCR');
#47=ORGANIZATION('OWNER_ORG_ID','OWNER_ORG_NAME','OWNER_ORG_DESCR');
#48=PERSON('DEFINITION_approverID','DEFINITION_APPROVEDBY_LASTNAME',
'DEFINITION_APPROVEDBY_FIRSTNAME',$,$,$);
#49=PERSON('DEF_createrID','DEF_CREATOR_LASTNAME',
'DEF_CREATOR_FIRSTNAME',$,$,$);
#50=PERSON('approverID','APPROVEDBY_LASTNAME','APPROVEDBY_FIRSTNAME',$,
$,$);
#51=PERSON('SECURITY_approverID','SECURITY_LASTNAME',
'SECURITY_APPROVEDBY_FIRSTNAME',$,$,$);
#52=PERSON('classifierID','CLASSOFFICER_LASTNAME',
'CLASSOFFICER_FIRSTNAME',$,$,$);
#53=PERSON('createrID','CREATOR_LASTNAME','CREATOR_FIRSTNAME',$,$,$);
#54=PERSON('supplierID','SUPPLIER_LASTNAME','SUPPLIER_FIRSTNAME',$,$,$);
#55=PERSON('ownerID','OWNER_LASTNAME','OWNER_FIRSTNAME',$,$,$);
#56=PERSON_AND_ORGANIZATION(#48,#40);
#57=PERSON_AND_ORGANIZATION(#49,#41);
#58=PERSON_AND_ORGANIZATION(#50,#42);
#59=PERSON_AND_ORGANIZATION(#51,#43);
#60=PERSON_AND_ORGANIZATION(#52,#44);
#61=PERSON_AND_ORGANIZATION(#53,#45);
#62=PERSON_AND_ORGANIZATION(#54,#46);
#63=PERSON_AND_ORGANIZATION(#55,#47);
#64=APPROVAL_ROLE('definition_approval');
#65=APPROVAL_ROLE('version_approval');
#66=APPROVAL_ROLE('security_approval');
#67=APPROVAL_DATE_TIME(#85,#93);
#68=APPROVAL_DATE_TIME(#87,#94);
#69=APPROVAL_DATE_TIME(#88,#95);
#70=COORDINATED_UNIVERSAL_TIME_OFFSET(5,0,.BEHIND.);
#71=COORDINATED_UNIVERSAL_TIME_OFFSET(5,0,.BEHIND.);
#72=COORDINATED_UNIVERSAL_TIME_OFFSET(5,0,.BEHIND.);
#73=COORDINATED_UNIVERSAL_TIME_OFFSET(5,0,.BEHIND.);
#74=COORDINATED_UNIVERSAL_TIME_OFFSET(5,0,.BEHIND.);
#75=LOCAL_TIME(9,57,50.,#70);
#76=LOCAL_TIME(9,57,50.,#71);
#77=LOCAL_TIME(9,57,50.,#72);
#78=LOCAL_TIME(9,57,50.,#73);
#79=LOCAL_TIME(9,57,50.,#74);
#80=CALENDAR_DATE(2018,4,8);
#81=CALENDAR_DATE(2018,4,8);
#82=CALENDAR_DATE(2018,4,8);
#83=CALENDAR_DATE(2018,4,8);
#84=CALENDAR_DATE(2018,4,8);
#85=DATE_AND_TIME(#80,#75);
#86=DATE_AND_TIME(#81,#76);
#87=DATE_AND_TIME(#82,#77);
#88=DATE_AND_TIME(#83,#78);
#89=DATE_AND_TIME(#84,#79);
#90=APPROVAL_STATUS('not_yet_approved');
#91=APPROVAL_STATUS('not_yet_approved');
#92=APPROVAL_STATUS('not_yet_approved');
#93=APPROVAL(#90,'defintion approval');
#94=APPROVAL(#91,'version approval');
#95=APPROVAL(#92,'security approval');
#96=PRODUCT_DEFINITION('DefinitionID','DefinitionDesc',#97,#19);
#97=PRODUCT_DEFINITION_FORMATION_WITH_SPECIFIED_SOURCE(
'PRODUCT_VERSION_ID','PRODUCT_VERSION_DESCR',#98,.NOT_KNOWN.);
#98=PRODUCT('ID_1','EM-6050P','',(#10));
#99=(
LENGTH_UNIT()
NAMED_UNIT(*)
SI_UNIT(.CENTI.,.METRE.)
);
#100=(
NAMED_UNIT(*)
PLANE_ANGLE_UNIT()
SI_UNIT($,.RADIAN.)
);
#101=(
NAMED_UNIT(*)
SI_UNIT($,.STERADIAN.)
SOLID_ANGLE_UNIT()
);
#102=UNCERTAINTY_MEASURE_WITH_UNIT(LENGTH_MEASURE(1.E-6),#99,
'DISTANCE_ACCURACY_VALUE',
'Maximum model space distance between geometric entities at asserted c
onnectivities');
#103=(
GEOMETRIC_REPRESENTATION_CONTEXT(3)
GLOBAL_UNCERTAINTY_ASSIGNED_CONTEXT((#102))
GLOBAL_UNIT_ASSIGNED_CONTEXT((#101,#100,#99))
REPRESENTATION_CONTEXT('ID1','3D')
);
#104=PLANE('',#230);
#105=PLANE('',#235);
#106=PLANE('',#239);
#107=PLANE('',#240);
#108=PLANE('',#244);
#109=CYLINDRICAL_SURFACE('',#228,0.225);
#110=CYLINDRICAL_SURFACE('',#232,0.02);
#111=CYLINDRICAL_SURFACE('',#236,0.02);
#112=CYLINDRICAL_SURFACE('',#241,0.275);
#113=CYLINDRICAL_SURFACE('',#247,0.3);
#114=VERTEX_POINT('',#289);
#115=VERTEX_POINT('',#291);
#116=VERTEX_POINT('',#294);
#117=VERTEX_POINT('',#297);
#118=VERTEX_POINT('',#300);
#119=VERTEX_POINT('',#302);
#120=VERTEX_POINT('',#306);
#121=VERTEX_POINT('',#308);
#122=VERTEX_POINT('',#313);
#123=VERTEX_POINT('',#315);
#124=VERTEX_POINT('',#319);
#125=CIRCLE('',#226,0.225);
#126=CIRCLE('',#227,0.25);
#127=CIRCLE('',#229,0.225);
#128=CIRCLE('',#231,0.3);
#129=CIRCLE('',#233,0.02);
#130=CIRCLE('',#234,0.02);
#131=CIRCLE('',#237,0.02);
#132=CIRCLE('',#238,0.02);
#133=CIRCLE('',#242,0.275);
#134=CIRCLE('',#243,0.275);
#135=CIRCLE('',#246,0.3);
#136=EDGE_CURVE('',#114,#114,#125,.T.);
#137=EDGE_CURVE('',#115,#115,#126,.T.);
#138=EDGE_CURVE('',#116,#116,#127,.T.);
#139=EDGE_CURVE('',#117,#117,#128,.T.);
#140=EDGE_CURVE('',#118,#118,#129,.T.);
#141=EDGE_CURVE('',#119,#119,#130,.T.);
#142=EDGE_CURVE('',#120,#120,#131,.T.);
#143=EDGE_CURVE('',#121,#121,#132,.T.);
#144=EDGE_CURVE('',#122,#122,#133,.T.);
#145=EDGE_CURVE('',#123,#123,#134,.T.);
#146=EDGE_CURVE('',#124,#124,#135,.T.);
#147=ORIENTED_EDGE('',*,*,#136,.T.);
#148=ORIENTED_EDGE('',*,*,#137,.T.);
#149=ORIENTED_EDGE('',*,*,#138,.F.);
#150=ORIENTED_EDGE('',*,*,#136,.F.);
#151=ORIENTED_EDGE('',*,*,#139,.F.);
#152=ORIENTED_EDGE('',*,*,#137,.F.);
#153=ORIENTED_EDGE('',*,*,#140,.T.);
#154=ORIENTED_EDGE('',*,*,#141,.F.);
#155=ORIENTED_EDGE('',*,*,#140,.F.);
#156=ORIENTED_EDGE('',*,*,#142,.T.);
#157=ORIENTED_EDGE('',*,*,#143,.F.);
#158=ORIENTED_EDGE('',*,*,#142,.F.);
#159=ORIENTED_EDGE('',*,*,#141,.T.);
#160=ORIENTED_EDGE('',*,*,#143,.T.);
#161=ORIENTED_EDGE('',*,*,#138,.T.);
#162=ORIENTED_EDGE('',*,*,#144,.T.);
#163=ORIENTED_EDGE('',*,*,#145,.F.);
#164=ORIENTED_EDGE('',*,*,#144,.F.);
#165=ORIENTED_EDGE('',*,*,#145,.T.);
#166=ORIENTED_EDGE('',*,*,#146,.T.);
#167=ORIENTED_EDGE('',*,*,#139,.T.);
#168=ORIENTED_EDGE('',*,*,#146,.F.);
#169=EDGE_LOOP('',(#147));
#170=EDGE_LOOP('',(#148));
#171=EDGE_LOOP('',(#149));
#172=EDGE_LOOP('',(#150));
#173=EDGE_LOOP('',(#151));
#174=EDGE_LOOP('',(#152));
#175=EDGE_LOOP('',(#153));
#176=EDGE_LOOP('',(#154));
#177=EDGE_LOOP('',(#155));
#178=EDGE_LOOP('',(#156));
#179=EDGE_LOOP('',(#157));
#180=EDGE_LOOP('',(#158));
#181=EDGE_LOOP('',(#159));
#182=EDGE_LOOP('',(#160));
#183=EDGE_LOOP('',(#161));
#184=EDGE_LOOP('',(#162));
#185=EDGE_LOOP('',(#163));
#186=EDGE_LOOP('',(#164));
#187=EDGE_LOOP('',(#165));
#188=EDGE_LOOP('',(#166));
#189=EDGE_LOOP('',(#167));
#190=EDGE_LOOP('',(#168));
#191=FACE_BOUND('',#169,.T.);
#192=FACE_BOUND('',#170,.T.);
#193=FACE_BOUND('',#171,.T.);
#194=FACE_BOUND('',#172,.T.);
#195=FACE_BOUND('',#173,.T.);
#196=FACE_BOUND('',#174,.T.);
#197=FACE_BOUND('',#175,.T.);
#198=FACE_BOUND('',#176,.T.);
#199=FACE_BOUND('',#177,.T.);
#200=FACE_BOUND('',#178,.T.);
#201=FACE_BOUND('',#179,.T.);
#202=FACE_BOUND('',#180,.T.);
#203=FACE_BOUND('',#181,.T.);
#204=FACE_BOUND('',#182,.T.);
#205=FACE_BOUND('',#183,.T.);
#206=FACE_BOUND('',#184,.T.);
#207=FACE_BOUND('',#185,.T.);
#208=FACE_BOUND('',#186,.T.);
#209=FACE_BOUND('',#187,.T.);
#210=FACE_BOUND('',#188,.T.);
#211=FACE_BOUND('',#189,.T.);
#212=FACE_BOUND('',#190,.T.);
#213=ADVANCED_FACE('',(#191,#192),#321,.T.);
#214=ADVANCED_FACE('',(#193,#194),#109,.F.);
#215=ADVANCED_FACE('',(#195,#196),#104,.T.);
#216=ADVANCED_FACE('',(#197,#198),#110,.T.);
#217=ADVANCED_FACE('',(#199),#105,.T.);
#218=ADVANCED_FACE('',(#200,#201),#111,.T.);
#219=ADVANCED_FACE('',(#202),#106,.T.);
#220=ADVANCED_FACE('',(#203,#204,#205),#107,.T.);
#221=ADVANCED_FACE('',(#206,#207),#112,.T.);
#222=ADVANCED_FACE('',(#208),#108,.T.);
#223=ADVANCED_FACE('',(#209,#210),#322,.T.);
#224=ADVANCED_FACE('',(#211,#212),#113,.T.);
#225=AXIS2_PLACEMENT_3D('',#287,#248,$);
#226=AXIS2_PLACEMENT_3D('',#288,#249,#250);
#227=AXIS2_PLACEMENT_3D('',#290,#251,#252);
#228=AXIS2_PLACEMENT_3D('',#292,#253,#254);
#229=AXIS2_PLACEMENT_3D('',#293,#255,#256);
#230=AXIS2_PLACEMENT_3D('',#295,#257,$);
#231=AXIS2_PLACEMENT_3D('',#296,#258,#259);
#232=AXIS2_PLACEMENT_3D('',#298,#260,#261);
#233=AXIS2_PLACEMENT_3D('',#299,#262,#263);
#234=AXIS2_PLACEMENT_3D('',#301,#264,#265);
#235=AXIS2_PLACEMENT_3D('',#303,#266,$);
#236=AXIS2_PLACEMENT_3D('',#304,#267,#268);
#237=AXIS2_PLACEMENT_3D('',#305,#269,#270);
#238=AXIS2_PLACEMENT_3D('',#307,#271,#272);
#239=AXIS2_PLACEMENT_3D('',#309,#273,$);
#240=AXIS2_PLACEMENT_3D('',#310,#274,$);
#241=AXIS2_PLACEMENT_3D('',#311,#275,#276);
#242=AXIS2_PLACEMENT_3D('',#312,#277,#278);
#243=AXIS2_PLACEMENT_3D('',#314,#279,#280);
#244=AXIS2_PLACEMENT_3D('',#316,#281,$);
#245=AXIS2_PLACEMENT_3D('',#317,#282,$);
#246=AXIS2_PLACEMENT_3D('',#318,#283,#284);
#247=AXIS2_PLACEMENT_3D('',#320,#285,#286);
#248=DIRECTION('',(0.,0.,-1.));
#249=DIRECTION('',(0.,0.,-1.));
#250=DIRECTION('',(-0.225,-2.75545529808154E-17,0.));
#251=DIRECTION('',(0.,0.,1.));
#252=DIRECTION('',(-0.25,-3.06161699786838E-17,0.));
#253=DIRECTION('',(0.,0.,-1.));
#254=DIRECTION('',(0.225,0.,0.));
#255=DIRECTION('',(0.,0.,1.));
#256=DIRECTION('',(0.225,0.,0.));
#257=DIRECTION('',(0.,0.,1.));
#258=DIRECTION('',(0.,0.,-1.));
#259=DIRECTION('',(0.3,0.,0.));
#260=DIRECTION('',(0.,0.,1.));
#261=DIRECTION('',(-0.02,2.44921270764476E-18,0.));
#262=DIRECTION('',(0.,0.,-1.));
#263=DIRECTION('',(-0.02,2.44921270764476E-18,0.));
#264=DIRECTION('',(0.,0.,-1.));
#265=DIRECTION('',(-0.02,2.44921270764476E-18,0.));
#266=DIRECTION('',(0.,0.,1.));
#267=DIRECTION('',(0.,0.,1.));
#268=DIRECTION('',(0.02,0.,0.));
#269=DIRECTION('',(0.,0.,-1.));
#270=DIRECTION('',(0.02,0.,0.));
#271=DIRECTION('',(0.,0.,-1.));
#272=DIRECTION('',(0.02,0.,0.));
#273=DIRECTION('',(0.,0.,1.));
#274=DIRECTION('',(0.,0.,1.));
#275=DIRECTION('',(0.,0.,-1.));
#276=DIRECTION('',(-0.275,0.,0.));
#277=DIRECTION('',(0.,0.,1.));
#278=DIRECTION('',(-0.275,0.,0.));
#279=DIRECTION('',(0.,0.,1.));
#280=DIRECTION('',(-0.275,3.36777869765522E-17,0.));
#281=DIRECTION('',(0.,0.,-1.));
#282=DIRECTION('',(0.,0.,1.));
#283=DIRECTION('',(0.,0.,-1.));
#284=DIRECTION('',(-0.3,3.67394039744206E-17,0.));
#285=DIRECTION('',(0.,0.,1.));
#286=DIRECTION('',(0.3,0.,0.));
#287=CARTESIAN_POINT('',(0.,0.,0.475));
#288=CARTESIAN_POINT('',(0.,0.,0.475));
#289=CARTESIAN_POINT('',(0.225,0.,0.475));
#290=CARTESIAN_POINT('',(0.,0.,0.5));
#291=CARTESIAN_POINT('',(0.25,6.12323399573676E-17,0.5));
#292=CARTESIAN_POINT('',(0.,0.,0.5));
#293=CARTESIAN_POINT('',(0.,0.,0.45));
#294=CARTESIAN_POINT('',(0.225,0.,0.45));
#295=CARTESIAN_POINT('',(0.,0.,0.5));
#296=CARTESIAN_POINT('',(0.,0.,0.5));
#297=CARTESIAN_POINT('',(0.3,0.,0.5));
#298=CARTESIAN_POINT('',(0.095,-1.16337603613126E-17,0.45));
#299=CARTESIAN_POINT('',(0.095,-1.16337603613126E-17,0.78));
#300=CARTESIAN_POINT('',(0.075,-9.18454765366783E-18,0.78));
#301=CARTESIAN_POINT('',(0.095,-1.16337603613126E-17,0.45));
#302=CARTESIAN_POINT('',(0.075,-9.18454765366783E-18,0.45));
#303=CARTESIAN_POINT('',(0.095,-1.16337603613126E-17,0.78));
#304=CARTESIAN_POINT('',(-0.095,0.,0.45));
#305=CARTESIAN_POINT('',(-0.095,0.,0.78));
#306=CARTESIAN_POINT('',(-0.075,0.,0.78));
#307=CARTESIAN_POINT('',(-0.095,0.,0.45));
#308=CARTESIAN_POINT('',(-0.075,0.,0.45));
#309=CARTESIAN_POINT('',(-0.095,0.,0.78));
#310=CARTESIAN_POINT('',(0.,0.,0.45));
#311=CARTESIAN_POINT('',(0.,0.,0.));
#312=CARTESIAN_POINT('',(0.,0.,-0.01));
#313=CARTESIAN_POINT('',(-0.275,0.,-0.01));
#314=CARTESIAN_POINT('',(0.,0.,0.));
#315=CARTESIAN_POINT('',(0.275,0.,0.));
#316=CARTESIAN_POINT('',(0.,0.,-0.01));
#317=CARTESIAN_POINT('',(0.,0.,0.025));
#318=CARTESIAN_POINT('',(0.,0.,0.025));
#319=CARTESIAN_POINT('',(0.3,-7.34788079488412E-17,0.025));
#320=CARTESIAN_POINT('',(0.,0.,0.));
#321=TOROIDAL_SURFACE('',#225,0.25,0.025);
#322=TOROIDAL_SURFACE('',#245,0.275,0.025);
#323=CLOSED_SHELL('',(#213,#214,#215,#216,#217,#218,#219,#220,#221,#222,
#223,#224));
#324=MANIFOLD_SOLID_BREP('',#323);
#325=ADVANCED_BREP_SHAPE_REPRESENTATION('',(#324),#103);
ENDSEC;
END-ISO-10303-21;
