ISO-10303-21;
HEADER;
/* Generated by software containing ST-Developer
 * from STEP Tools, Inc. (www.steptools.com) 
 */

FILE_DESCRIPTION(
/* description */ ('Alibre Inc.'),
/* implementation_level */ '2;1');

FILE_NAME(
/* name */ 'export0',
/* time_stamp */ '2018-08-04T10:09:18-05:00',
/* author */ (''),
/* organization */ (''),
/* preprocessor_version */ 'ST-DEVELOPER v17',
/* originating_system */ 'Alibre',
/* authorisation */ '');

FILE_SCHEMA (('CONFIG_CONTROL_DESIGN'));
ENDSEC;

DATA;
#10=MECHANICAL_CONTEXT('detailed design',#18,'mechanical');
#11=PRODUCT_RELATED_PRODUCT_CATEGORY('detail','',(#98));
#12=CC_DESIGN_SECURITY_CLASSIFICATION(#14,(#97));
#13=SECURITY_CLASSIFICATION_LEVEL('unclassified');
#14=SECURITY_CLASSIFICATION('name','Security for version',#13);
#15=SHAPE_DEFINITION_REPRESENTATION(#16,#520);
#16=PRODUCT_DEFINITION_SHAPE('','DefinitionDesc',#96);
#17=APPLICATION_PROTOCOL_DEFINITION('AP definition status',
'config_control_design',1994,#18);
#18=APPLICATION_CONTEXT(
'control the configuration of three dimensional design');
#19=DESIGN_CONTEXT('detailed design',#18,'design');
#20=PERSON_AND_ORGANIZATION_ROLE('creator');
#21=PERSON_AND_ORGANIZATION_ROLE('classification_officer');
#22=PERSON_AND_ORGANIZATION_ROLE('creator');
#23=PERSON_AND_ORGANIZATION_ROLE('design_supplier');
#24=PERSON_AND_ORGANIZATION_ROLE('design_owner');
#25=CC_DESIGN_PERSON_AND_ORGANIZATION_ASSIGNMENT(#57,#20,(#96));
#26=CC_DESIGN_PERSON_AND_ORGANIZATION_ASSIGNMENT(#60,#21,(#14));
#27=CC_DESIGN_PERSON_AND_ORGANIZATION_ASSIGNMENT(#61,#22,(#97));
#28=CC_DESIGN_PERSON_AND_ORGANIZATION_ASSIGNMENT(#62,#23,(#97));
#29=CC_DESIGN_PERSON_AND_ORGANIZATION_ASSIGNMENT(#63,#24,(#98));
#30=DATE_TIME_ROLE('creation_date');
#31=DATE_TIME_ROLE('classification_date');
#32=CC_DESIGN_DATE_AND_TIME_ASSIGNMENT(#86,#30,(#96));
#33=CC_DESIGN_DATE_AND_TIME_ASSIGNMENT(#89,#31,(#14));
#34=CC_DESIGN_APPROVAL(#93,(#96));
#35=CC_DESIGN_APPROVAL(#94,(#97));
#36=CC_DESIGN_APPROVAL(#95,(#14));
#37=APPROVAL_PERSON_ORGANIZATION(#56,#93,#64);
#38=APPROVAL_PERSON_ORGANIZATION(#58,#94,#65);
#39=APPROVAL_PERSON_ORGANIZATION(#59,#95,#66);
#40=ORGANIZATION('DEFINITION_APPROVEDBY_ORG_ID',
'DEFINITION_APPROVEDBY_ORG_NAME','DEFINITION_APPROVEDBY_ORG_DESCR');
#41=ORGANIZATION('DEF_CREATOR_ORG_ID','DEF_CREATOR_ORG_NAME',
'DEF_CREATOR_ORG_DESCR');
#42=ORGANIZATION('APPROVEDBY_ORG_ID','APPROVEDBY_ORG_NAME',
'APPROVEDBY_ORG_DESCR');
#43=ORGANIZATION('SECURITY_APPROVEDBY_ORG_ID',
'SECURITY_APPROVEDBY_ORG_NAME','SECURITY_APPROVEDBY_ORG_DESCR');
#44=ORGANIZATION('CLASSOFFICER_ORG_ID','CLASSOFFICER_ORG_NAME',
'CLASSOFFICER_ORG_DESCR');
#45=ORGANIZATION('CREATOR_ORG_ID','CREATOR_ORG_NAME',
'CREATOR_ORG_DESCR');
#46=ORGANIZATION('SUPPLIER_ORG_ID','SUPPLIER_ORG_NAME',
'SUPPLIER_ORG_DESCR');
#47=ORGANIZATION('OWNER_ORG_ID','OWNER_ORG_NAME','OWNER_ORG_DESCR');
#48=PERSON('DEFINITION_approverID','DEFINITION_APPROVEDBY_LASTNAME',
'DEFINITION_APPROVEDBY_FIRSTNAME',$,$,$);
#49=PERSON('DEF_createrID','DEF_CREATOR_LASTNAME',
'DEF_CREATOR_FIRSTNAME',$,$,$);
#50=PERSON('approverID','APPROVEDBY_LASTNAME','APPROVEDBY_FIRSTNAME',$,
$,$);
#51=PERSON('SECURITY_approverID','SECURITY_LASTNAME',
'SECURITY_APPROVEDBY_FIRSTNAME',$,$,$);
#52=PERSON('classifierID','CLASSOFFICER_LASTNAME',
'CLASSOFFICER_FIRSTNAME',$,$,$);
#53=PERSON('createrID','CREATOR_LASTNAME','CREATOR_FIRSTNAME',$,$,$);
#54=PERSON('supplierID','SUPPLIER_LASTNAME','SUPPLIER_FIRSTNAME',$,$,$);
#55=PERSON('ownerID','OWNER_LASTNAME','OWNER_FIRSTNAME',$,$,$);
#56=PERSON_AND_ORGANIZATION(#48,#40);
#57=PERSON_AND_ORGANIZATION(#49,#41);
#58=PERSON_AND_ORGANIZATION(#50,#42);
#59=PERSON_AND_ORGANIZATION(#51,#43);
#60=PERSON_AND_ORGANIZATION(#52,#44);
#61=PERSON_AND_ORGANIZATION(#53,#45);
#62=PERSON_AND_ORGANIZATION(#54,#46);
#63=PERSON_AND_ORGANIZATION(#55,#47);
#64=APPROVAL_ROLE('definition_approval');
#65=APPROVAL_ROLE('version_approval');
#66=APPROVAL_ROLE('security_approval');
#67=APPROVAL_DATE_TIME(#85,#93);
#68=APPROVAL_DATE_TIME(#87,#94);
#69=APPROVAL_DATE_TIME(#88,#95);
#70=COORDINATED_UNIVERSAL_TIME_OFFSET(5,0,.BEHIND.);
#71=COORDINATED_UNIVERSAL_TIME_OFFSET(5,0,.BEHIND.);
#72=COORDINATED_UNIVERSAL_TIME_OFFSET(5,0,.BEHIND.);
#73=COORDINATED_UNIVERSAL_TIME_OFFSET(5,0,.BEHIND.);
#74=COORDINATED_UNIVERSAL_TIME_OFFSET(5,0,.BEHIND.);
#75=LOCAL_TIME(9,38,45.,#70);
#76=LOCAL_TIME(9,38,45.,#71);
#77=LOCAL_TIME(9,38,45.,#72);
#78=LOCAL_TIME(9,38,45.,#73);
#79=LOCAL_TIME(9,38,45.,#74);
#80=CALENDAR_DATE(2018,4,8);
#81=CALENDAR_DATE(2018,4,8);
#82=CALENDAR_DATE(2018,4,8);
#83=CALENDAR_DATE(2018,4,8);
#84=CALENDAR_DATE(2018,4,8);
#85=DATE_AND_TIME(#80,#75);
#86=DATE_AND_TIME(#81,#76);
#87=DATE_AND_TIME(#82,#77);
#88=DATE_AND_TIME(#83,#78);
#89=DATE_AND_TIME(#84,#79);
#90=APPROVAL_STATUS('not_yet_approved');
#91=APPROVAL_STATUS('not_yet_approved');
#92=APPROVAL_STATUS('not_yet_approved');
#93=APPROVAL(#90,'defintion approval');
#94=APPROVAL(#91,'version approval');
#95=APPROVAL(#92,'security approval');
#96=PRODUCT_DEFINITION('DefinitionID','DefinitionDesc',#97,#19);
#97=PRODUCT_DEFINITION_FORMATION_WITH_SPECIFIED_SOURCE(
'PRODUCT_VERSION_ID','PRODUCT_VERSION_DESCR',#98,.NOT_KNOWN.);
#98=PRODUCT('ID_1','EM-4530','',(#10));
#99=(
LENGTH_UNIT()
NAMED_UNIT(*)
SI_UNIT(.CENTI.,.METRE.)
);
#100=(
NAMED_UNIT(*)
PLANE_ANGLE_UNIT()
SI_UNIT($,.RADIAN.)
);
#101=(
NAMED_UNIT(*)
SI_UNIT($,.STERADIAN.)
SOLID_ANGLE_UNIT()
);
#102=UNCERTAINTY_MEASURE_WITH_UNIT(LENGTH_MEASURE(1.E-6),#99,
'DISTANCE_ACCURACY_VALUE',
'Maximum model space distance between geometric entities at asserted c
onnectivities');
#103=(
GEOMETRIC_REPRESENTATION_CONTEXT(3)
GLOBAL_UNCERTAINTY_ASSIGNED_CONTEXT((#102))
GLOBAL_UNIT_ASSIGNED_CONTEXT((#101,#100,#99))
REPRESENTATION_CONTEXT('ID1','3D')
);
#104=PLANE('',#315);
#105=PLANE('',#316);
#106=PLANE('',#323);
#107=PLANE('',#324);
#108=PLANE('',#327);
#109=PLANE('',#334);
#110=PLANE('',#339);
#111=CIRCLE('',#313,0.1875);
#112=CIRCLE('',#314,0.1625);
#113=CIRCLE('',#318,0.1875);
#114=CIRCLE('',#319,0.1625);
#115=CIRCLE('',#322,0.1875);
#116=CIRCLE('',#326,0.1875);
#117=CIRCLE('',#328,0.2);
#118=CIRCLE('',#330,0.2);
#119=CIRCLE('',#332,0.2);
#120=CIRCLE('',#333,0.2);
#121=CIRCLE('',#336,0.225);
#122=CIRCLE('',#338,0.225);
#123=TOROIDAL_SURFACE('',#312,0.1625,0.025);
#124=TOROIDAL_SURFACE('',#317,0.1625,0.025);
#125=TOROIDAL_SURFACE('',#335,0.2,0.025);
#126=B_SPLINE_CURVE_WITH_KNOTS('',3,(#402,#403,#404,#405,#406,#407,#408,
#409,#410,#411,#412,#413,#414,#415),.UNSPECIFIED.,.F.,.U.,(4,2,2,2,2,2,
4),(-0.000418697371120235,0.,0.0170481395826607,0.031876088103888,0.04225432432251,
0.0494603880721701,0.0555889487025626),.UNSPECIFIED.);
#127=B_SPLINE_CURVE_WITH_KNOTS('',3,(#419,#420,#421,#422,#423,#424,#425,
#426,#427,#428,#429,#430,#431,#432),.UNSPECIFIED.,.F.,.U.,(4,2,2,2,2,2,
4),(-0.055111235960675,-0.0546992398988261,-0.0379239581454219,-0.0233333329887973,
-0.0131212018746351,-0.00603047217082631,0.),.UNSPECIFIED.);
#128=B_SPLINE_CURVE_WITH_KNOTS('',3,(#447,#448,#449,#450,#451,#452,#453,
#454,#455,#456,#457,#458,#459,#460),.UNSPECIFIED.,.F.,.U.,(4,2,2,2,2,2,
4),(-0.0551112359606555,-0.0546992398987987,-0.0379239581454239,-0.0233333329887986,
-0.0131212018746363,-0.00603047217082658,0.),.UNSPECIFIED.);
#129=B_SPLINE_CURVE_WITH_KNOTS('',3,(#464,#465,#466,#467,#468,#469,#470,
#471,#472,#473,#474,#475,#476,#477),.UNSPECIFIED.,.F.,.U.,(4,2,2,2,2,2,
4),(-0.00041869737111769,0.,0.0170481395826439,0.0318760881038544,0.0422543243224663,
0.0494603880721187,0.0555889487025054),.UNSPECIFIED.);
#130=VERTEX_POINT('',#400);
#131=VERTEX_POINT('',#401);
#132=VERTEX_POINT('',#416);
#133=VERTEX_POINT('',#418);
#134=VERTEX_POINT('',#438);
#135=VERTEX_POINT('',#440);
#136=VERTEX_POINT('',#445);
#137=VERTEX_POINT('',#446);
#138=VERTEX_POINT('',#461);
#139=VERTEX_POINT('',#463);
#140=VERTEX_POINT('',#483);
#141=VERTEX_POINT('',#485);
#142=VERTEX_POINT('',#494);
#143=VERTEX_POINT('',#497);
#144=VERTEX_POINT('',#500);
#145=VERTEX_POINT('',#502);
#146=VERTEX_POINT('',#506);
#147=VERTEX_POINT('',#509);
#148=VECTOR('',#342,1.);
#149=VECTOR('',#343,1.);
#150=VECTOR('',#350,1.);
#151=VECTOR('',#351,1.);
#152=VECTOR('',#352,1.);
#153=VECTOR('',#361,1.);
#154=VECTOR('',#362,1.);
#155=VECTOR('',#365,1.);
#156=VECTOR('',#368,1.);
#157=VECTOR('',#371,1.);
#158=LINE('',#399,#148);
#159=LINE('',#417,#149);
#160=LINE('',#437,#150);
#161=LINE('',#439,#151);
#162=LINE('',#441,#152);
#163=LINE('',#479,#153);
#164=LINE('',#480,#154);
#165=LINE('',#482,#155);
#166=LINE('',#486,#156);
#167=LINE('',#489,#157);
#168=EDGE_CURVE('',#130,#131,#158,.T.);
#169=EDGE_CURVE('',#132,#131,#126,.T.);
#170=EDGE_CURVE('',#132,#133,#159,.T.);
#171=EDGE_CURVE('',#133,#130,#127,.T.);
#172=EDGE_CURVE('',#131,#130,#111,.T.);
#173=EDGE_CURVE('',#133,#132,#112,.T.);
#174=EDGE_CURVE('',#134,#130,#160,.T.);
#175=EDGE_CURVE('',#135,#134,#161,.T.);
#176=EDGE_CURVE('',#135,#131,#162,.T.);
#177=EDGE_CURVE('',#136,#137,#113,.T.);
#178=EDGE_CURVE('',#138,#137,#128,.T.);
#179=EDGE_CURVE('',#138,#139,#114,.T.);
#180=EDGE_CURVE('',#139,#136,#129,.T.);
#181=EDGE_CURVE('',#137,#136,#163,.T.);
#182=EDGE_CURVE('',#139,#138,#164,.T.);
#183=EDGE_CURVE('',#140,#136,#165,.T.);
#184=EDGE_CURVE('',#141,#140,#115,.T.);
#185=EDGE_CURVE('',#141,#137,#166,.T.);
#186=EDGE_CURVE('',#140,#141,#167,.T.);
#187=EDGE_CURVE('',#134,#135,#116,.T.);
#188=EDGE_CURVE('',#142,#142,#117,.T.);
#189=EDGE_CURVE('',#143,#143,#118,.T.);
#190=EDGE_CURVE('',#144,#144,#119,.T.);
#191=EDGE_CURVE('',#145,#145,#120,.T.);
#192=EDGE_CURVE('',#146,#146,#121,.T.);
#193=EDGE_CURVE('',#147,#147,#122,.T.);
#194=ORIENTED_EDGE('',*,*,#168,.T.);
#195=ORIENTED_EDGE('',*,*,#169,.F.);
#196=ORIENTED_EDGE('',*,*,#170,.T.);
#197=ORIENTED_EDGE('',*,*,#171,.T.);
#198=ORIENTED_EDGE('',*,*,#172,.T.);
#199=ORIENTED_EDGE('',*,*,#171,.F.);
#200=ORIENTED_EDGE('',*,*,#173,.T.);
#201=ORIENTED_EDGE('',*,*,#169,.T.);
#202=ORIENTED_EDGE('',*,*,#168,.F.);
#203=ORIENTED_EDGE('',*,*,#174,.F.);
#204=ORIENTED_EDGE('',*,*,#175,.F.);
#205=ORIENTED_EDGE('',*,*,#176,.T.);
#206=ORIENTED_EDGE('',*,*,#170,.F.);
#207=ORIENTED_EDGE('',*,*,#173,.F.);
#208=ORIENTED_EDGE('',*,*,#177,.T.);
#209=ORIENTED_EDGE('',*,*,#178,.F.);
#210=ORIENTED_EDGE('',*,*,#179,.T.);
#211=ORIENTED_EDGE('',*,*,#180,.T.);
#212=ORIENTED_EDGE('',*,*,#181,.T.);
#213=ORIENTED_EDGE('',*,*,#180,.F.);
#214=ORIENTED_EDGE('',*,*,#182,.T.);
#215=ORIENTED_EDGE('',*,*,#178,.T.);
#216=ORIENTED_EDGE('',*,*,#177,.F.);
#217=ORIENTED_EDGE('',*,*,#183,.F.);
#218=ORIENTED_EDGE('',*,*,#184,.F.);
#219=ORIENTED_EDGE('',*,*,#185,.T.);
#220=ORIENTED_EDGE('',*,*,#179,.F.);
#221=ORIENTED_EDGE('',*,*,#182,.F.);
#222=ORIENTED_EDGE('',*,*,#181,.F.);
#223=ORIENTED_EDGE('',*,*,#185,.F.);
#224=ORIENTED_EDGE('',*,*,#186,.F.);
#225=ORIENTED_EDGE('',*,*,#183,.T.);
#226=ORIENTED_EDGE('',*,*,#172,.F.);
#227=ORIENTED_EDGE('',*,*,#176,.F.);
#228=ORIENTED_EDGE('',*,*,#187,.F.);
#229=ORIENTED_EDGE('',*,*,#174,.T.);
#230=ORIENTED_EDGE('',*,*,#188,.T.);
#231=ORIENTED_EDGE('',*,*,#187,.T.);
#232=ORIENTED_EDGE('',*,*,#175,.T.);
#233=ORIENTED_EDGE('',*,*,#186,.T.);
#234=ORIENTED_EDGE('',*,*,#184,.T.);
#235=ORIENTED_EDGE('',*,*,#188,.F.);
#236=ORIENTED_EDGE('',*,*,#189,.F.);
#237=ORIENTED_EDGE('',*,*,#190,.T.);
#238=ORIENTED_EDGE('',*,*,#191,.F.);
#239=ORIENTED_EDGE('',*,*,#190,.F.);
#240=ORIENTED_EDGE('',*,*,#191,.T.);
#241=ORIENTED_EDGE('',*,*,#192,.T.);
#242=ORIENTED_EDGE('',*,*,#193,.T.);
#243=ORIENTED_EDGE('',*,*,#192,.F.);
#244=ORIENTED_EDGE('',*,*,#189,.T.);
#245=ORIENTED_EDGE('',*,*,#193,.F.);
#246=EDGE_LOOP('',(#194,#195,#196,#197));
#247=EDGE_LOOP('',(#198,#199,#200,#201));
#248=EDGE_LOOP('',(#202,#203,#204,#205));
#249=EDGE_LOOP('',(#206,#207));
#250=EDGE_LOOP('',(#208,#209,#210,#211));
#251=EDGE_LOOP('',(#212,#213,#214,#215));
#252=EDGE_LOOP('',(#216,#217,#218,#219));
#253=EDGE_LOOP('',(#220,#221));
#254=EDGE_LOOP('',(#222,#223,#224,#225));
#255=EDGE_LOOP('',(#226,#227,#228,#229));
#256=EDGE_LOOP('',(#230));
#257=EDGE_LOOP('',(#231,#232));
#258=EDGE_LOOP('',(#233,#234));
#259=EDGE_LOOP('',(#235));
#260=EDGE_LOOP('',(#236));
#261=EDGE_LOOP('',(#237));
#262=EDGE_LOOP('',(#238));
#263=EDGE_LOOP('',(#239));
#264=EDGE_LOOP('',(#240));
#265=EDGE_LOOP('',(#241));
#266=EDGE_LOOP('',(#242));
#267=EDGE_LOOP('',(#243));
#268=EDGE_LOOP('',(#244));
#269=EDGE_LOOP('',(#245));
#270=FACE_BOUND('',#246,.T.);
#271=FACE_BOUND('',#247,.T.);
#272=FACE_BOUND('',#248,.T.);
#273=FACE_BOUND('',#249,.T.);
#274=FACE_BOUND('',#250,.T.);
#275=FACE_BOUND('',#251,.T.);
#276=FACE_BOUND('',#252,.T.);
#277=FACE_BOUND('',#253,.T.);
#278=FACE_BOUND('',#254,.T.);
#279=FACE_BOUND('',#255,.T.);
#280=FACE_BOUND('',#256,.T.);
#281=FACE_BOUND('',#257,.T.);
#282=FACE_BOUND('',#258,.T.);
#283=FACE_BOUND('',#259,.T.);
#284=FACE_BOUND('',#260,.T.);
#285=FACE_BOUND('',#261,.T.);
#286=FACE_BOUND('',#262,.T.);
#287=FACE_BOUND('',#263,.T.);
#288=FACE_BOUND('',#264,.T.);
#289=FACE_BOUND('',#265,.T.);
#290=FACE_BOUND('',#266,.T.);
#291=FACE_BOUND('',#267,.T.);
#292=FACE_BOUND('',#268,.T.);
#293=FACE_BOUND('',#269,.T.);
#294=ADVANCED_FACE('',(#270),#511,.T.);
#295=ADVANCED_FACE('',(#271),#123,.T.);
#296=ADVANCED_FACE('',(#272),#104,.T.);
#297=ADVANCED_FACE('',(#273),#105,.T.);
#298=ADVANCED_FACE('',(#274),#124,.T.);
#299=ADVANCED_FACE('',(#275),#512,.T.);
#300=ADVANCED_FACE('',(#276),#513,.T.);
#301=ADVANCED_FACE('',(#277),#106,.T.);
#302=ADVANCED_FACE('',(#278),#107,.T.);
#303=ADVANCED_FACE('',(#279),#514,.T.);
#304=ADVANCED_FACE('',(#280,#281,#282),#108,.T.);
#305=ADVANCED_FACE('',(#283,#284),#515,.F.);
#306=ADVANCED_FACE('',(#285,#286),#516,.T.);
#307=ADVANCED_FACE('',(#287),#109,.T.);
#308=ADVANCED_FACE('',(#288,#289),#125,.T.);
#309=ADVANCED_FACE('',(#290,#291),#517,.T.);
#310=ADVANCED_FACE('',(#292,#293),#110,.T.);
#311=AXIS2_PLACEMENT_3D('',#398,#340,#341);
#312=AXIS2_PLACEMENT_3D('',#433,#344,$);
#313=AXIS2_PLACEMENT_3D('',#434,#345,#346);
#314=AXIS2_PLACEMENT_3D('',#435,#347,#348);
#315=AXIS2_PLACEMENT_3D('',#436,#349,$);
#316=AXIS2_PLACEMENT_3D('',#442,#353,$);
#317=AXIS2_PLACEMENT_3D('',#443,#354,$);
#318=AXIS2_PLACEMENT_3D('',#444,#355,#356);
#319=AXIS2_PLACEMENT_3D('',#462,#357,#358);
#320=AXIS2_PLACEMENT_3D('',#478,#359,#360);
#321=AXIS2_PLACEMENT_3D('',#481,#363,#364);
#322=AXIS2_PLACEMENT_3D('',#484,#366,#367);
#323=AXIS2_PLACEMENT_3D('',#487,#369,$);
#324=AXIS2_PLACEMENT_3D('',#488,#370,$);
#325=AXIS2_PLACEMENT_3D('',#490,#372,#373);
#326=AXIS2_PLACEMENT_3D('',#491,#374,#375);
#327=AXIS2_PLACEMENT_3D('',#492,#376,$);
#328=AXIS2_PLACEMENT_3D('',#493,#377,#378);
#329=AXIS2_PLACEMENT_3D('',#495,#379,#380);
#330=AXIS2_PLACEMENT_3D('',#496,#381,#382);
#331=AXIS2_PLACEMENT_3D('',#498,#383,#384);
#332=AXIS2_PLACEMENT_3D('',#499,#385,#386);
#333=AXIS2_PLACEMENT_3D('',#501,#387,#388);
#334=AXIS2_PLACEMENT_3D('',#503,#389,$);
#335=AXIS2_PLACEMENT_3D('',#504,#390,$);
#336=AXIS2_PLACEMENT_3D('',#505,#391,#392);
#337=AXIS2_PLACEMENT_3D('',#507,#393,#394);
#338=AXIS2_PLACEMENT_3D('',#508,#395,#396);
#339=AXIS2_PLACEMENT_3D('',#510,#397,$);
#340=DIRECTION('',(0.,1.,3.04650518704004E-32));
#341=DIRECTION('',(-0.0176776695296637,-5.44735249506578E-34,0.0176776695296637));
#342=DIRECTION('',(0.,-1.,-3.04650518704004E-32));
#343=DIRECTION('',(0.,1.,3.04650518704004E-32));
#344=DIRECTION('',(-1.33383423924516E-32,3.04650518704004E-32,-1.));
#345=DIRECTION('',(1.33383423924516E-32,-3.04650518704004E-32,1.));
#346=DIRECTION('',(0.1875,7.61626296760011E-34,0.));
#347=DIRECTION('',(-1.33383423924516E-32,3.04650518704004E-32,-1.));
#348=DIRECTION('',(0.1625,6.60076123858676E-34,-2.16748063877339E-33));
#349=DIRECTION('',(-1.,0.,0.));
#350=DIRECTION('',(0.,0.,1.));
#351=DIRECTION('',(0.,1.,0.));
#352=DIRECTION('',(0.,0.,1.));
#353=DIRECTION('',(1.33383423924516E-32,-3.04650518704004E-32,1.));
#354=DIRECTION('',(1.33383423924516E-32,-1.82790311222402E-32,-1.));
#355=DIRECTION('',(-1.33383423924516E-32,1.82790311222402E-32,1.));
#356=DIRECTION('',(-0.1875,-2.29621274840129E-17,0.));
#357=DIRECTION('',(1.33383423924516E-32,-1.82790311222402E-32,-1.));
#358=DIRECTION('',(-0.1625,-1.99005104861445E-17,-2.16748063877338E-33));
#359=DIRECTION('',(0.,-1.,1.82790311222402E-32));
#360=DIRECTION('',(0.0176776695296637,0.,0.0176776695296637));
#361=DIRECTION('',(0.,1.,-1.82790311222402E-32));
#362=DIRECTION('',(0.,-1.,1.82790311222402E-32));
#363=DIRECTION('',(0.,0.,1.));
#364=DIRECTION('',(0.1875,0.,0.));
#365=DIRECTION('',(0.,0.,1.));
#366=DIRECTION('',(0.,0.,-1.));
#367=DIRECTION('',(0.1875,0.,0.));
#368=DIRECTION('',(0.,0.,1.));
#369=DIRECTION('',(-1.33383423924516E-32,1.82790311222402E-32,1.));
#370=DIRECTION('',(1.,0.,0.));
#371=DIRECTION('',(0.,-1.,0.));
#372=DIRECTION('',(0.,0.,1.));
#373=DIRECTION('',(0.1875,0.,0.));
#374=DIRECTION('',(0.,0.,-1.));
#375=DIRECTION('',(0.1875,0.,0.));
#376=DIRECTION('',(0.,0.,1.));
#377=DIRECTION('',(0.,0.,1.));
#378=DIRECTION('',(0.2,0.,0.));
#379=DIRECTION('',(0.,0.,-1.));
#380=DIRECTION('',(0.2,0.,0.));
#381=DIRECTION('',(0.,0.,-1.));
#382=DIRECTION('',(0.2,0.,0.));
#383=DIRECTION('',(0.,0.,-1.));
#384=DIRECTION('',(-0.2,0.,0.));
#385=DIRECTION('',(0.,0.,1.));
#386=DIRECTION('',(-0.2,0.,0.));
#387=DIRECTION('',(0.,0.,1.));
#388=DIRECTION('',(-0.2,2.44929359829471E-17,0.));
#389=DIRECTION('',(0.,0.,-1.));
#390=DIRECTION('',(0.,0.,1.));
#391=DIRECTION('',(0.,0.,-1.));
#392=DIRECTION('',(-0.225,2.75545529808154E-17,0.));
#393=DIRECTION('',(0.,0.,1.));
#394=DIRECTION('',(0.225,0.,0.));
#395=DIRECTION('',(0.,0.,-1.));
#396=DIRECTION('',(0.225,0.,0.));
#397=DIRECTION('',(0.,0.,1.));
#398=CARTESIAN_POINT('',(0.075,1.10026161932433E-18,0.2875));
#399=CARTESIAN_POINT('',(0.05,1.10026161932433E-18,0.2875));
#400=CARTESIAN_POINT('',(0.05,0.180710403685012,0.2875));
#401=CARTESIAN_POINT('',(0.05,-0.180710403685012,0.2875));
#402=CARTESIAN_POINT('',(0.0750000000000001,-0.144157032433385,0.3125));
#403=CARTESIAN_POINT('',(0.0749275828672796,-0.144276340307103,0.3125));
#404=CARTESIAN_POINT('',(0.0748550994730649,-0.14439560923155,0.312499685345843));
#405=CARTESIAN_POINT('',(0.0718286241305473,-0.149369409244334,0.312473360293078));
#406=CARTESIAN_POINT('',(0.0687186151962747,-0.154227178842353,0.311923837542761));
#407=CARTESIAN_POINT('',(0.0629730803560789,-0.162818949244531,0.30960563917082));
#408=CARTESIAN_POINT('',(0.0602325612396658,-0.166756997172517,0.3079650135465));
#409=CARTESIAN_POINT('',(0.0559918608030034,-0.172673245816918,0.303916979823024));
#410=CARTESIAN_POINT('',(0.0543174168533676,-0.174953759050547,0.301836921570212));
#411=CARTESIAN_POINT('',(0.0520122582033992,-0.178050661337928,0.297528621734622));
#412=CARTESIAN_POINT('',(0.0512194920855961,-0.179101863757371,0.295537188443638));
#413=CARTESIAN_POINT('',(0.050242529713349,-0.180392350611699,0.291470263419575));
#414=CARTESIAN_POINT('',(0.05,-0.180710403685012,0.289510157390276));
#415=CARTESIAN_POINT('',(0.05,-0.180710403685012,0.2875));
#416=CARTESIAN_POINT('',(0.0750000000000001,-0.144157032433385,0.3125));
#417=CARTESIAN_POINT('',(0.075,1.10026161932433E-18,0.3125));
#418=CARTESIAN_POINT('',(0.075,0.144157032433385,0.3125));
#419=CARTESIAN_POINT('',(0.075,0.144157032433385,0.3125));
#420=CARTESIAN_POINT('',(0.0749275828672803,0.144276340307102,0.3125));
#421=CARTESIAN_POINT('',(0.0748550994730639,0.144395609231551,0.312499685345843));
#422=CARTESIAN_POINT('',(0.0718286241305624,0.149369409244311,0.312473360293078));
#423=CARTESIAN_POINT('',(0.0687186151962763,0.15422717884235,0.311923837542762));
#424=CARTESIAN_POINT('',(0.062973080356079,0.162818949244531,0.30960563917082));
#425=CARTESIAN_POINT('',(0.0602325612396658,0.166756997172517,0.3079650135465));
#426=CARTESIAN_POINT('',(0.0559918608030033,0.172673245816918,0.303916979823024));
#427=CARTESIAN_POINT('',(0.0543174168533675,0.174953759050547,0.301836921570212));
#428=CARTESIAN_POINT('',(0.0520122582033994,0.178050661337928,0.297528621734622));
#429=CARTESIAN_POINT('',(0.051219492085596,0.179101863757371,0.295537188443638));
#430=CARTESIAN_POINT('',(0.0502425297133488,0.180392350611699,0.291470263419574));
#431=CARTESIAN_POINT('',(0.05,0.180710403685012,0.289510157390275));
#432=CARTESIAN_POINT('',(0.05,0.180710403685012,0.2875));
#433=CARTESIAN_POINT('',(0.,0.,0.2875));
#434=CARTESIAN_POINT('',(0.,0.,0.2875));
#435=CARTESIAN_POINT('',(3.33458559811291E-34,-7.61626296760011E-34,0.3125));
#436=CARTESIAN_POINT('',(0.05,0.,0.275));
#437=CARTESIAN_POINT('',(0.05,0.180710403685012,0.275));
#438=CARTESIAN_POINT('',(0.05,0.180710403685012,0.275));
#439=CARTESIAN_POINT('',(0.05,0.,0.275));
#440=CARTESIAN_POINT('',(0.05,-0.180710403685012,0.275));
#441=CARTESIAN_POINT('',(0.05,-0.180710403685012,0.275));
#442=CARTESIAN_POINT('',(0.0960222034982944,2.20052323864865E-18,0.3125));
#443=CARTESIAN_POINT('',(0.,0.,0.2875));
#444=CARTESIAN_POINT('',(0.,0.,0.2875));
#445=CARTESIAN_POINT('',(-0.05,0.180710403685012,0.2875));
#446=CARTESIAN_POINT('',(-0.05,-0.180710403685012,0.2875));
#447=CARTESIAN_POINT('',(-0.075,-0.144157032433385,0.3125));
#448=CARTESIAN_POINT('',(-0.0749275828672777,-0.144276340307106,0.3125));
#449=CARTESIAN_POINT('',(-0.0748550994730667,-0.144395609231547,0.312499685345843));
#450=CARTESIAN_POINT('',(-0.0718286241305178,-0.149369409244382,0.312473360293078));
#451=CARTESIAN_POINT('',(-0.0687186151962709,-0.154227178842359,0.31192383754276));
#452=CARTESIAN_POINT('',(-0.0629730803560789,-0.162818949244531,0.30960563917082));
#453=CARTESIAN_POINT('',(-0.0602325612396659,-0.166756997172517,0.3079650135465));
#454=CARTESIAN_POINT('',(-0.0559918608030035,-0.172673245816918,0.303916979823024));
#455=CARTESIAN_POINT('',(-0.0543174168533676,-0.174953759050547,0.301836921570212));
#456=CARTESIAN_POINT('',(-0.0520122582033992,-0.178050661337928,0.297528621734622));
#457=CARTESIAN_POINT('',(-0.0512194920855961,-0.179101863757372,0.295537188443638));
#458=CARTESIAN_POINT('',(-0.0502425297133489,-0.180392350611699,0.291470263419575));
#459=CARTESIAN_POINT('',(-0.05,-0.180710403685012,0.289510157390275));
#460=CARTESIAN_POINT('',(-0.05,-0.180710403685012,0.2875));
#461=CARTESIAN_POINT('',(-0.075,-0.144157032433385,0.3125));
#462=CARTESIAN_POINT('',(-3.3345855981129E-34,4.56975778056007E-34,0.3125));
#463=CARTESIAN_POINT('',(-0.075,0.144157032433385,0.3125));
#464=CARTESIAN_POINT('',(-0.075,0.144157032433385,0.3125));
#465=CARTESIAN_POINT('',(-0.07492758286728,0.144276340307102,0.3125));
#466=CARTESIAN_POINT('',(-0.0748550994730643,0.144395609231551,0.312499685345843));
#467=CARTESIAN_POINT('',(-0.0718286241305508,0.14936940924433,0.312473360293078));
#468=CARTESIAN_POINT('',(-0.0687186151962748,0.154227178842353,0.311923837542761));
#469=CARTESIAN_POINT('',(-0.062973080356079,0.16281894924453,0.30960563917082));
#470=CARTESIAN_POINT('',(-0.0602325612396657,0.166756997172517,0.3079650135465));
#471=CARTESIAN_POINT('',(-0.0559918608030029,0.172673245816919,0.303916979823024));
#472=CARTESIAN_POINT('',(-0.0543174168533675,0.174953759050548,0.301836921570212));
#473=CARTESIAN_POINT('',(-0.0520122582033994,0.178050661337928,0.297528621734622));
#474=CARTESIAN_POINT('',(-0.051219492085596,0.179101863757371,0.295537188443638));
#475=CARTESIAN_POINT('',(-0.0502425297133489,0.180392350611699,0.291470263419574));
#476=CARTESIAN_POINT('',(-0.05,0.180710403685012,0.289510157390275));
#477=CARTESIAN_POINT('',(-0.05,0.180710403685012,0.2875));
#478=CARTESIAN_POINT('',(-0.075,5.07289407267956E-18,0.2875));
#479=CARTESIAN_POINT('',(-0.05,5.07289407267956E-18,0.2875));
#480=CARTESIAN_POINT('',(-0.075,5.07289407267956E-18,0.3125));
#481=CARTESIAN_POINT('',(0.,0.,0.275));
#482=CARTESIAN_POINT('',(-0.05,0.180710403685012,0.275));
#483=CARTESIAN_POINT('',(-0.05,0.180710403685012,0.275));
#484=CARTESIAN_POINT('',(0.,0.,0.275));
#485=CARTESIAN_POINT('',(-0.05,-0.180710403685012,0.275));
#486=CARTESIAN_POINT('',(-0.05,-0.180710403685012,0.275));
#487=CARTESIAN_POINT('',(-0.0960222034982944,1.01457881453591E-17,0.3125));
#488=CARTESIAN_POINT('',(-0.05,0.,0.275));
#489=CARTESIAN_POINT('',(-0.05,0.,0.275));
#490=CARTESIAN_POINT('',(0.,0.,0.275));
#491=CARTESIAN_POINT('',(0.,0.,0.275));
#492=CARTESIAN_POINT('',(0.,0.,0.275));
#493=CARTESIAN_POINT('',(0.,0.,0.275));
#494=CARTESIAN_POINT('',(0.2,0.,0.275));
#495=CARTESIAN_POINT('',(0.,0.,0.3));
#496=CARTESIAN_POINT('',(0.,0.,0.3));
#497=CARTESIAN_POINT('',(0.2,0.,0.3));
#498=CARTESIAN_POINT('',(0.,0.,0.));
#499=CARTESIAN_POINT('',(0.,0.,-0.01));
#500=CARTESIAN_POINT('',(-0.2,0.,-0.01));
#501=CARTESIAN_POINT('',(0.,0.,0.));
#502=CARTESIAN_POINT('',(0.2,0.,0.));
#503=CARTESIAN_POINT('',(0.,0.,-0.01));
#504=CARTESIAN_POINT('',(0.,0.,0.025));
#505=CARTESIAN_POINT('',(0.,0.,0.025));
#506=CARTESIAN_POINT('',(0.225,-5.51091059616309E-17,0.025));
#507=CARTESIAN_POINT('',(0.,0.,0.));
#508=CARTESIAN_POINT('',(0.,0.,0.3));
#509=CARTESIAN_POINT('',(0.225,0.,0.3));
#510=CARTESIAN_POINT('',(0.,0.,0.3));
#511=CYLINDRICAL_SURFACE('',#311,0.025);
#512=CYLINDRICAL_SURFACE('',#320,0.025);
#513=CYLINDRICAL_SURFACE('',#321,0.1875);
#514=CYLINDRICAL_SURFACE('',#325,0.1875);
#515=CYLINDRICAL_SURFACE('',#329,0.2);
#516=CYLINDRICAL_SURFACE('',#331,0.2);
#517=CYLINDRICAL_SURFACE('',#337,0.225);
#518=CLOSED_SHELL('',(#294,#295,#296,#297,#298,#299,#300,#301,#302,#303,
#304,#305,#306,#307,#308,#309,#310));
#519=MANIFOLD_SOLID_BREP('',#518);
#520=ADVANCED_BREP_SHAPE_REPRESENTATION('',(#519),#103);
ENDSEC;
END-ISO-10303-21;
